< REQ > ALI Noor Manwa Ray Solo

Discussion in 'Pakistani Guitar Tabs - Submit or Request' started by saad2kool, Dec 18, 2004.

  1. saad2kool

    saad2kool New Member

    Plzz PLzzzzz Some 1 Tell Me ALI Noor Manwa Ray Solo :shock: :shock:
     
  2. Punjabi4life007

    Punjabi4life007 New Member

    I got this from pakmanzil.com

    F
    dhol ki taal bigaray
    F
    gaaray dil jhum kay gaaray
    Bb
    apna har dard chupakay
    C F
    nachay aur sab ko nacharay
    F
    muk ghunghat dalay
    F
    naina do mat walay
    Bb C F
    aaj koi chala hai sajkay piya nagarya ray
    Dm C Dm C
    yay bandhan, natay, saaray tor day manva ray
    F Bb F
    Ho manva raaaay Ho Manva ray

    [BRIDGE 1]
    Bb C F
    Ho manva raaaay na tarpa ray
    Bb C F
    agan dil ki na sulka ray
    Am Bb
    na bharka ray na chanka ray
    Dm C F
    yay naina raaaay ho manva ray

    [SOLO]



    ---------------------------8--10---------------------------------------
    ---8h10--8-10--8-10-11---------8h10--8-10-------------------------
    ------------------------------------------------------------------------
    ------------------------------------------------------------------------
    ------------------------------------------------------------------------
    ------------------------------------------------------------------------

    ------------------------------------------------------------------------
    -10s13-13-13h15p13p11p10-8-8h10-10-10-8-6-6h8s10s11-10p8s6
    ------------------------------------------------------------------------
    ------------------------------------------------------------------------
    ------------------------------------------------------------------------
    ------------------------------------------------------------------------

    ------------------------------------------------------------------------
    -6h8-8-6-6-6-6-8-6-5----6h8-8-6-6-6-6-----------------------------
    --------------------7---------------------------------------------------
    ------------------------------------------------------------------------
    ------------------------------------------------------------------------
    ------------------------------------------------------------------------


    [REPEAT BRIDGE 1]
    Ho Manva Ray...

    [VERSE 2]
    F
    praith ka mahal banaya
    F
    haath teray kuch na aaya
    Bb
    chhot meray dil ki ujri
    C F
    aas ka diya bhujaya
    F
    bichiriya dayday kay
    F
    pyar sab say laykay
    Bb C F
    aaj koi chala hai sajkay piya nagarya ray
    Dm C Dm C
    yay bandhan, natay, saaray tor day manva ray
    F Bb F
    Ho manva raaaay Ho Manva ray

    [BRIDGE 1 REPEAT]
    Ho manva ray...

    [BRIDGE 2]
    G D G G D G
    Ho manva raaaaay,ho manva raaaaay
    G Am Em D G
    mita sohna sada jeeray,kisay shehraaaa na ghum dheevay
    G
    na ghum dheevay sada jeeray
    G
    na ghum dheevay sada jeeray
    G
    sada jeeray.....
     
  3. jayswami

    jayswami Blue J

    the old noori site had this mother of all pdf file with all the tabs for their songs. the site no longer exists. does anyone have that pdf file?

    thanks.

    Jay
     
  4. moadhia

    moadhia New Member

    yahh i do .. :D ... send me ur email addy willl email it
     
  5. Liquid

    Liquid New Member

    yea i have the file as well...

    can u assist with the strumming plz??
     
  6. gandabacha

    gandabacha New Member

    plzz send me that PDF doc.

    [SNIP]

    plzz send me that PDF document containin noori's tabs....


    thanx,,,,
     
  7. munimak

    munimak New Member

  8. xeusviper

    xeusviper New Member

  9. shahzadquraishi

    shahzadquraishi New Member

  10. granskyline

    granskyline New Member

  11. MAK_EyRiE

    MAK_EyRiE New Member

Share This Page