REQ:ali haider's ZAlim nazroon sae please..

Discussion in 'Pakistani Guitar Tabs - Submit or Request' started by Xeus, Feb 23, 2005.

  1. Xeus

    Xeus New Member

    Can any one post Zalim Nazroon Sae muj ko na dekho by Ali Haider....
    or any one post Typical Phusto Music Tabs....

    or from Film Zanjeer ....Yari hai emman meraaa Yaar meri Xindagiii.....

    ?????????
     
  2. Xeus

    Xeus New Member

    ???????????????
     
  3. Xeus

    Xeus New Member

    Everyone sleeping out there...........???????
     
  4. Xeus

    Xeus New Member

    Req..ALi haider's zalim Nazroon..

    Req: I need Zalim Nazroon sae mujh ko na dekho mar jaaona gaaa...
    can anyone help...???
     
  5. Saul Hudson

    Saul Hudson New Member

    the version that i've got is not based wholly on guitar ... there is a bass part and some power chords and a riff is played in b/w the verses which is given below ... i dont have a bass guitar just an acoustic so i am not sure whether this right..

    Bass Part
    g|---------------------|
    D|---------------------|
    A|-----------5-3-2-----|
    E|-5555555-3------0h3--|

    Riff played in b/w the verses
    e|-----------------|--------------|
    b|-----------------|-/9h7s5-4-2p0-|
    g|-----------------|--------------|
    D|-7-7-7-7-7-7-5-5-|--------------|
    A|-7-7-7-7-7-7-5-5-|--------------|
    E|-5-5-5-5-5-5-3-3-|--------------|

    i can't post the chords right now ... coz i dont have the high e string on my guitar...i am sorry if its wrong...

    Adios
     

Share This Page