Req :: Ali Azmat - Mungagan

Discussion in 'Pakistani Guitar Tabs - Submit or Request' started by aeg0, May 14, 2005.

  1. aeg0

    aeg0 Guitarıng Alchemist

    I need the tabs of the intro riff of mungagan by ali azmat. i think they're played on a bass guitar, with distortion. im surprised no one has tabbed out any of the songs from this great album. For more info check out this thread http://www.indianguitartabs.com/showthread.php?t=9218
     
  2. junoonist

    junoonist New Member

    e---------------------------------------------
    B-1-3--1-3--1h3----1-3--1h3--3-1-3-1
    G---------------------------------------------
    D---------------------------------------------
    A---------------------------------------------
    E---------------------------------------------

    e------------------------------------------
    B----1-----1----1-----1----1-3-1--3-1
    G-2-2--2-2--2-2--2-2--2-2-2-2--2-2
    D-2-2--2-2--2-2--2-2--2-2-2-2--2-2
    A------------------------------------------
    E------------------------------------------

    Twice.....!
     
  3. junoonist

    junoonist New Member

    Chords:

    Am Cm G.....!
     

Share This Page