Req:Aise na mujhe tum dekho tabs+chords

Discussion in 'Hindi Guitar Tabs - Submit or Request' started by whampher, Sep 16, 2006.

  1. whampher

    whampher New Member

    could any1 of you post the tabs+chords+strumming pattern
    of the song aise na mujhe tum dekho.......
    please include the audio of strumming patern if possible.....

    thanking you
    Rahul Singh
     
  2. jozko

    jozko Banned

    whampher, tabs and chords may already be available. I think it's a good practice to use search feature before posting fresh request threads. It keeps forums clean. I don't think forums are regularly moderated here.

    I will also try to search chords and tabs and strumming pattern for this. Let me know if u find them
     
  3. jozko

    jozko Banned

    --------------------------------------------------------------------------
    Song - Aise na Mujhe
    Movie - Darling Darling
    Year - 1977
    MD - R. D. Burman
    --------------------------------------------------------------------------

    Notes just before vocals

    Code:
    e-13-11--13-11--13-11------16-14--16-14--16-14----------------------
    
    
    e--11--13---11-13--11-13---11--13-(13*)---11-13-(13*)--11--13-(13*)
    
    *optional soft note
    vocals

    Code:
    Aise....
    
    e----------------------------------------------------------
    b--5px-5-6---5--6px---5-5----6px-55-55-6--8----------------
    G----------7-----------------------------------------------
    
    5px - pull of to mute note
    
    Code:
    Tumko.... 
    
    e----------------------------------------------------------
    b--8px---5--6--8--6px---5--6--8--------8--6--5-5-----------
    G------7--------------7----------7-7-----------------------
    
    Code:
    Aise.....
    
    e----------------------------------------------------------
    b--6px-5-6---5--6-----5-5----6px-55-55-6--8s10s8-----------
    G----------7------7----------------------------------------
    
    Code:
    Tumko...                                          hmm..
    e-------------------------------------------------4-5--4-5-
    b--6-5---5--6--8--6px---5--6--8--------8--6--5-5-----------
    G------7--------------7----------7-7-----------------------
    
    Code:
    Dheemi...
    
    e-55-- 99-10--9-7---7px--9---12--10p9--7s10--9-----------
    
    Code:
    Duur se...
    
    e--5--7--99--10p9--9p7-7--77-9---7--5-4--44--5-------------
    
    Code:
    Main ab...
    
    e--4-4px-7-7px----------8--87--55-------------------------
    b--------------5-55-55------------------------------------
    back to Tumko..
    
    All of you check this and post corrections please. Seems this song has interesting use of scales. Please let me know if they correspond to actual notes and weather the octave is reasonable

    keywords - aisey aisay aysey aysay muje thum deko dekho tab tabs melody intro tablature notes kishore kumar
     
  4. jozko

    jozko Banned

    I have attached an audio of strumming pattern as an mp3 file. But due to size limits on mp3, i had to rename it as .PDF it is just 210Kb. Check it.

    remember the attachment is MP3 file and not a PDF file.

    So rename it after download or if u dunno to rename, just drag and drop onto ur music player program window. don't try to double click it to open in Adobe reader.

    I used F=>G#=>F chords. chord changes can be identified from squeak sounds. I donno if they r correct chords. For this song, the strumming pattern is clearly audible at the start. so my mp3 may not be relevant. i attached only as there was a request. Also i am playing intro tabs. so those who are concerned with timing of tabs might find it useful. I did a multitrack on audacity. awesome program. get a copy today. it's free.

    Do leave thoughts and link to correct chords of this song. thx all

    keywords - strum rythm


    EDIT: I found chords by member lalbamboo as very good. here http://www.indianguitartabs.com/showthread.php?t=1324
    So it seems Bbm F G# check it. he mentions scale shift in song. thx bamboo!
     

    Attached Files:

Share This Page