REQ - Adat slow version fingerpricking

Discussion in 'Pakistani Guitar Tabs - Submit or Request' started by devil, Jun 18, 2005.

  1. devil

    devil New Member

    can anyone please tell me the fingerpricking of slow version adat plz i want it !specially fingerpricking pattern please
     
  2. Orange Guitar

    Orange Guitar IGT's ALLROUNDER

    it is like the original version....he just plays B chord with open e string....other things are simple...pattern is like yakeen intro......!!
     
  3. devil

    devil New Member

    dude i dont know intro of yakeen plz send me that intro of yakeen also and blu version of adat ! plz bro
     
  4. pure_angel

    pure_angel New Member

    LOL......................
    starting.....
    1

    |----------4------4------4------4-----------------------------------|
    B|-----6------6------6------6------6---------------------------------|
    G|---6---6------6------6------6------6-------------------------------|
    D|-4-----------------------------------------------------------------|
    A|-------------------------------------------------------------------|
    E|-------------------------------------------------------------------|

    e|----------5------5------5------5-----------------------------------|
    B|-----6------6------6------6------6---------------------------------|
    G|---6---6------6------6------6------6-------------------------------|
    D|-4-----------------------------------------------------------------|
    A|-------------------------------------------------------------------|
    E|-------------------------------------------------------------------|

    ending

    e|---------4-------------2-------------0-------------2---------------|
    b|-----5---5---------4---4---------2---2---------4---4---------------|
    g|---6-----6-------4-----4-------2-----2-------4-----4---------------|
    d|-6-------6-----4-------4-----2-------2-----4-------4---------------|
    a|---------4-------------2-------------0-------------2---------------|
    e|-------------------------------------------------------------------|
     
  5. Quadrophenia

    Quadrophenia New Member

    its PICKING..not pRicking.... ..just so no one makes fun of u!!
    :cool:
     
  6. pure_angel

    pure_angel New Member

    yaar dunno what it is... but through these notes i use to play aadat... i posted them coz if anyone could do something with it... send us those "prick" stuff... so it could facilitate me anyway....
     
  7. faiqgiant

    faiqgiant .: Innocent :.

    again u said prick lol its pick
     
  8. Quadrophenia

    Quadrophenia New Member

    now u deserved to be made fun of. prick = D*ck ..sorry i'm straight dont like giving ''prick stuff'' to other ppl.... :p:
     
  9. Orange Guitar

    Orange Guitar IGT's ALLROUNDER

    these are wrong tabs...i have posted the complete version of aadat...u just have to arpeggio the chords in yakeen's intro pattern...thats the whole song...u can searc hit in the forum...both thing are available there!
     
  10. J.J

    J.J The Guitar God

    shutup kia prick prick lagai hoi hai tum logo nay sick minded blah blah blah
     
  11. DrSaurabh

    DrSaurabh Wh@+s Up D0C

    all of u get back to the thread please.......and just forget about the typo......
    no more spamming about the typo
     
  12. Lahori_rocker

    Lahori_rocker Guitar God left IGT

    for the acoustic version try Dm C and Bb it also sounds great...........................
     
  13. hasham

    hasham New Member

    hey dude i made version it sounds pretty good on my guitar but its not accurate. they are bascially 3 chordsand this is the order they are played in teh intro and verses play by fingerpicking slowly then at chahat aise hai start strumming slowly. This is my work so liek dont steal it be free to use it.


    e-----------------------0----------0-----------
    a--------------2------------2---------2-------
    d---------1-------1------------1---------1----
    g-----2---------------------------------------
    b----------------------------------------------
    e---------------------------------------------


    e---------------------0---------0-------------
    a---------4-------------4---------4-----------
    d------4-----4-------------4--------4---------
    g---4-----------------------------------------
    b----------------------------------------------
    e---------------------------------------------


    e-----------------------0----------0-----------
    a--------------2------------2---------2-------
    d---------2-------2------------2---------2----
    g-----2---------------------------------------
    b----------------------------------------------
    e---------------------------------------------
     
  14. Orange Guitar

    Orange Guitar IGT's ALLROUNDER

    this is wrong...and the guitarist do not fingerpick...!!!!
     
  15. anshphenomenon

    anshphenomenon Rape me :boff:

    tabs r kool!!!
     
  16. hasham

    hasham New Member

    hey orange i never sai dthey were perfect they sound pretty good .....
     
  17. har1s

    har1s <b>Untitled</b>

    yaaar... i suggest this....if u wanna fingerpick or play an unplugged version


    intro:


    Asus2
    e--------------------------------------------------
    B-------------0------0------0------0-------------
    G-------2-------2------2------2------2-------------
    D----2----2-------2------2------2------2----------
    A--0-------------------------------------------------
    E--------------------------------------------------
    Am
    e--------------------------------------------------
    B-------------1------1------1------1-------------
    G-------2-------2------2------2------2-------------
    D----2----2-------2------2------2------2----------
    A--0-------------------------------------------------
    E--------------------------------------------------

    look at orange's post....instead of the chords used in the vocals... use these chords for the unplugged version

    Am G F
     
  18. har1s

    har1s <b>Untitled</b>

    no offense @orange.. :p
     
  19. nadish

    nadish Active Member

    Yarr the slow (finger picking) version of aadat is little different form the original version
     
  20. har1s

    har1s <b>Untitled</b>

    haan....the strumming is different....but try the chords i've posted...they sound pretty okay...u can use the barre chords also...


    C#<x46644>
    B <x24442>
    A <x02220>

    but the song is played differently....
     

Share This Page