ReQ:adat and bikhra hoon mein concert version

Discussion in 'Pakistani Guitar Tabs - Submit or Request' started by Nixon_Soul, Nov 12, 2005.

  1. Nixon_Soul

    Nixon_Soul New Member

    hi guys
    i need addat and bikhra hoon mein concert version....i want complete tab sheet as well as chords.....it will be a great help......special request to big evil, imran, orange, and umerboy.....

    peace
     
  2. anshphenomenon

    anshphenomenon Rape me :boff:

    search the forums..
    u have plenty of chords for that!!
     
  3. BIG_EVIL

    BIG_EVIL Guitaring Machine

    the chords are C#m B A
    its very simple
    just join the songs ;)
     
  4. adnanshakil

    adnanshakil New Member

    jal again.. guyz.. all the tabs are available.. search for them.. try alittle bit yourself.. c#m scale is used for the transition into bikhra hon..

    smart answer big_evil.. :)
     
  5. Nixon_Soul

    Nixon_Soul New Member

    well thanks.....i got wha i want ..........


    peace.....
     
  6. grimreeper_007

    grimreeper_007 New Member

    man can someone post the adat solo tht goher played in the vdeo of adat+bikhra hoon mei, its the same solo but has additional tabs
     
  7. Lahori_rocker

    Lahori_rocker Guitar God left IGT

    i have the complete tabs of aadat nd bikhra hoon mai concerts version but i will post them on only rep points.....................;)
     
  8. Orange Guitar

    Orange Guitar IGT's ALLROUNDER

    i have posted the both aadat and bikhra hon main...nothing is diff. ! search the forum!
     
  9. wiqqi

    wiqqi New Member

    post it again :p
    i dun even knw how to search... noob i agree =D
     
  10. Orange Guitar

    Orange Guitar IGT's ALLROUNDER

    Here is aadat!

    =====================================================================

    Tabbed By : Orange Guitar

    Original Song By: Jal The Band

    =====================================================================

    (Now here is the full version of "Aadat". It is on standard tuning)

    =====================================================================

    Here goes the intro :

    This is the first arpeggio which is played by pick.

    e|-------------------------------------------------------------------|
    B|----------4------4------4------4-----------------------------------|
    G|-----6------6------6------6------6---------------------------------|
    D|---6---6------6------6------6------6-------------------------------|
    A|-4-----------------------------------------------------------------|
    E|-------------------------------------------------------------------|

    Now the second arpeggio comes in after arpeggio 1.

    e|-------------------------------------------------------------------|
    B|----------5------5------5------5-----------------------------------|
    G|-----6------6------6------6------6---------------------------------|
    D|---6---------6------6------6------6-------------------------------|
    A|-4-----------------------------------------------------------------|
    E|-------------------------------------------------------------------|

    Listen to the song to figure out the pattern.

    ======================================================================

    Now here goes the strumming after the intro. " ; " indicates
    that this part should be repeated.

    e|------4---------4---------;--4---------4--------;------------------|
    B|------4---------5---------;--4---------5--------;------------------|
    G|------6--(2x)---6---(2x)--;--6--(2x)---6--(2x)--;------------------|
    D|------6---------6---------;--7---------7--------;------------------|
    A|------4---------4---------;--4---------4--------;------------------|
    E|-------------------------------------------------------------------|

    ======================================================================

    During strumming lead guitar plays this.

    e|----------0--------------------0-----------------0----------0------|
    B|-2--0--2-----2--0-----2--0--2-----2--0------0-------0-------0------|
    G|------------------------------------------2---2--------2----2------|
    D|-------------------------------------------------------------------|
    A|-------------------------------------------------------------------|
    E|-------------------------------------------------------------------|


    Strumming given above carries on till this part ends.

    ======================================================================

    Then the rythem guitar plays this with chorus.
    (Figure out the timing by yourself)

    e|------4-----2-----0-----2-----;-;-;---------------------------------|
    B|------5-----4-----2-----4-----;-;-;---------------------------------|
    G|------6-----4-----2-----4-----;-;-;---------------------------------|
    D|------6-----4-----2-----4-----;-;-;---------------------------------|
    A|------4-----2-----0-----2-----;-;-;---------------------------------|
    E|-------------------------------------------------------------------|

    ======================================================================

    The lead guitar solo.

    e|-------4----7--4--------4----7--4----------2------4------5---------|
    B|---5-----5----------5-----5------------2-----2------2------2-------|
    G|-6---6------------6---6--------------2---2-----2------2------2-----|
    D|-------------------------------------------------------------------|
    A|-------------------------------------------------------------------|
    E|-------------------------------------------------------------------|

    e|-------4----7--4--------4----7--4----------2-------2---------------|
    B|---5-----5----------5-----5------------2-----------2---------------|
    G|-6---6------------6---6--------------2---2----2----2---------------|
    D|-------------------------------------------------------------------|
    A|-------------------------------------------------------------------|
    E|-------------------------------------------------------------------|

    Behind the solo, acoustic strumming carries on.

    ======================================================================

    Now again the same rythem part continues.

    ======================================================================

    Here is the famous solo.

    e|--4-5-4-4-4----4---------------------------------------------------|
    B|--------------------7—5-4-4-4---4-5-4-2-5---5h7p5-4----------------|

    e|--4-5-4-4-7-9-7-9s11-9—7-7---7—5h7-5—4p2-2-------------------------|

    ======================================================================

    During the solo, acoustic guitar plays these pluck strums.

    e|---------4-------------2-------------0-------------2----------;----|
    b|-----5---5---------4---4---------2---2---------4---4----------;----|
    g|---6-----6-------4-----4-------2-----2-------4-----4----------;----|
    d|-6-------6-----4-------4-----2-------2-----4-------4----------;----|
    a|---------4-------------2-------------0-------------2----------;----|
    e|-------------------------------------------------------------------|

    ======================================================================

    Between the "Aaaaa Aaaa aaaa" part, lead guitar plays these power
    chords fastly.

    e|-------------------------------------------------------------------|
    b|---5---------------------------------------------------------------|
    g|-6-6-----------2------------4---------------------------------------|
    D|-6-6-(many x)- 2--(many x)--4--(many x)----------------------------|
    a|-4-4-----------0------------2--------------------------------------|
    e|-------------------------------------------------------------------|

    Rythem guitar also contiues its chords.

    ======================================================================


    Now some "Aaaaaa Aaaaaa Aaaaa" with rythem chords.

    ======================================================================

    The ending is like this.

    e|---------4-------------2-------------0-------------2---------------|
    b|-----5---5---------4---4---------2---2---------4---4---------------|
    g|---6-----6-------4-----4-------2-----2-------4-----4---------------|
    d|-6-------------4-------------2-------------4-----------------------|
    a|-------------------------------------------------------------------|
    e|-------------------------------------------------------------------|

    ======================================================================
     
  11. Orange Guitar

    Orange Guitar IGT's ALLROUNDER

    This is Bikhra Hon Main !

    __________________________________________________________________________________________________

    --------------------------
    | TABBED BY ORANGE GUITAR | BIKhRA HON MAIN BY JAL
    -------------------------
    __________________________________________________________________________________________________

    Here is the intro!

    |---------------0---------------------------|
    |-----------------0-------------------------|
    |----------6--------6-----------------------|
    |--------6----6-----------------------------|
    |------4------------------------------------|
    |-------------------------------------------|


    Repeat the same pattern of arpegio on chords (024400) and (002200) with the lyrics given below....adjust timing yourself

    __________________________________________________________________________________________________

    |______________________________________|
    | |
    | Mana bikhra hoon main abhi |
    | Main nay khawaab peroay thay |
    | Teree saansoon main gum hoon abhi |
    | Mairee chahat adhoore hay |
    |______________________________________|

    __________________________________________________________________________________________________

    This is the fast acoustic part...it is original !!!!


    |-------------------------------------------|
    |-------4s5-5-5-5-5-4-5-5-7-5-4-------------|
    |-------------------------------------------|
    |-------------------------------------------| x4
    |-------------------------------------------|
    |-------------------------------------------|

    __________________________________________________________________________________________________

    Then the electric guitar plays this:

    |--x-x-x-|
    |--x-x-x-|
    |--9-7-9-|continue strumming with mutes (he also repeats this part...listen to song)
    |--x-x-x-|
    |--x-x-x-|
    |--x-x-x-|

    |--x-x-x--|
    |--x-x-x--|
    |--9-7-11-|continue strumming (resumes to 11-9-7 and repeats sometimes)
    |--x-x-x--|
    |--x-x-x--|
    |--x-x-x--|

    __________________________________________________________________________________________________

    Addat solo is now played with distortion!


    |---4-5-4-4-4----------------------------------|
    |---------------7-5-4-4-4--4-5-4-2-5-5-5s7s5-4-|
    |----------------------------------------------|
    |----------------------------------------------|
    |----------------------------------------------|
    |----------------------------------------------|


    play this part faster
    |--4-5-4-4--7-9-7-9s11-9s7-7-7-7s5-5h7-5-4-4h5p4-0-------------------------|
    |----------------------------------------------------4-5-4-----------------|
    |----------------------------------------------------------6-4-6-----------| (you can also add hammer and pulls in ending)
    |-----------------------------------------------------------------4-6------|
    |--------------------------------------------------------------------------|
    |--------------------------------------------------------------------------|

    __________________________________________________________________________________________________
    Strumming:

    c#m---------------------B-----------------------------A-------B
    mushkilain jab bhee a jaye gee dard had say guzar jayee gaaa

    Play other lines with similar pattern

    __________________________________________________________________________________________________
    Power Chords here!!!

    (x466xx)---------------(x244xx)------------(x022xx)------(x244x)
    Ab to Aadat see hay mugh ko aisay jeenay main

    Aadat Strumming (Strange thing...aadat strumming is same as of Lamhay....as I have already posted a sound file in the forum)

    __________________________________________________________________________________________________

    Shuffle these chords fastly with aaaaaaaa.... part:

    (x466xx),(x4665x) (2x), then (x022xx),(x244xx) ...adjust timing yourself!
    [fast switching]
    __________________________________________________________________________________________________

    Play aadat intro with these chords : (x46644),(x46654),(x47644),(x47654)

    Play some power chords are played which are given above.
    __________________________________________________________________________________________________

    The song ends with aadat's outro...just a slight variation with arpeggios (actually he repeats the arpeggio).....
    he just dont plucks the last three strings at one time....pluck them one bu one....chords are same as I have given
    in Aadat's version.
    __________________________________________________________________________________________________

    : SUGGESTION AND COMMENTS ARE WELCOME AT MY EMAIL ADDRESS :[SNIP]
    __________________________________________________________________________________________________

    Both are same....just a lil dif....u can play chords on higher frets 2!!!!
     
  12. faiqrock

    faiqrock XaiQ

    There was no special chords of The concert version i mean...it was same....but in the Intro the hv used the power chords...from najaney kab sey they used the Power chords...
    the pattern was....
    The whole intro is wid Strumming DUD


    (x466xx)>>DUD>>DUD is Strumming pattern...
    (x022xx)

    (x466xx) 2 times
    Najaney Kab sey

    thn (x466xx) (x244xx) thn 2 times (x022xx)

    again
    (x466xx)>>DUD
    (x022xx)

    (x466xx) 2 times
    Najaney Kab sey

    (x022xx) 2 times
    Ummedain kuch Baki hain...

    (x466xx) 2 times


    (x466xx) 2 times
    Mujhey phir bhi teri yaad

    (x466xx) (x244xx) thn 2 times (x022xx)
    Kiyonnnnnnnnnnnnnnn ati hai

    Najaney kab sey......

    thts it...now continue the Real Chords

    i recorded the intro chk it....widout vocals...if u dun get it thn ask me...
    http://www.soundclick.com/faiq
     
  13. wiqqi

    wiqqi New Member

    the whole solo is different for the concert version.. =\
     
  14. wiqqi

    wiqqi New Member

    the ending is like a repetition for aadat ... hav u even heard the concert version :S
     
  15. faiqrock

    faiqrock XaiQ

    Ya i Saw the Concert ....n Can u see Orange Post he posted the SOLO aswell.....open ur eyes bro.....
     
  16. grimreeper_007

    grimreeper_007 New Member

    only last part is same but the middle part doesnt matches the concert version
     
  17. faiqrock

    faiqrock XaiQ

    @Grim: yar com on.....it is 101% correct.....if u listen Again....thn see...
     
  18. grimreeper_007

    grimreeper_007 New Member

    man there are additonal tabs in middle part
     
  19. rizaaj

    rizaaj Forum Leader

    hey.. why are you people tabbing out the concert versions... i guess.. just play around with the original song.. and it becomes a concert version.. the main music remains the same.. doesnt it?
     
  20. BIG_EVIL

    BIG_EVIL Guitaring Machine

    yup
    it remains the sameeeeeeeeee
     

Share This Page