Req accurate chords :- Meri Awaz Suno of junoon azadi

Discussion in 'Hindi Guitar Tabs - Submit or Request' started by ntn_sk, Jul 18, 2007.

  1. ntn_sk

    ntn_sk New Member

    Hi, I need accutate chords of Meri Awaz Suno of azadi, junoon
     
  2. alpha1

    alpha1 I BLUES!

    Initial arp is Am

    (Am)Meri awaaz suno
    (Dm)Mujhe azaad
    (C)Meri awaaz (G)suno ...


    Then the Am strumming is done like this:
    ---5--55--555------
    ---5--55--555------
    ---5--55--555-7-5-7
    ---7--77--777-7-7-7
    --------------------
    -------------------

    Lemme listen to the song com[letely before posting it further.
     
  3. jazzbox

    jazzbox His X Ln C 1000CC

    Originaly Tabbed by: The Unaffectionate Nomster (TUN)

    Code:
    Meri Awaz Suno (Azaadi)
    
    	Am		Dm		C		G		 E
    --------0---------------1---------------0---------------3----------------0-----------
    ------1---1-----------3---3-----------1---1-----------3---3------------0---0---------
    ----2-------2-------2------ 2-------0-------0-------0-------0--------1-------1-------
    ------------------0------------------------------------------------------------------
    --0------------------------------3--------------------------------2------------------
    --------------------------------------------------3----------------------------------
    
    Pick the chords as shown above:
    
         Am		    Dm   Am
    Meri awaz suno mujhe azad karo
         C	G	E   Am
    Meri awaz suno insaf do
    
    Use bar chords here:
    Am Am Am D D D
    Am Am Am then
    
    Riff 1
    
    e -----------------------------------------------------------
    B -----------------------------------------------------------
    G -----------------------------------------------------------
    D ----------5------------------------------------------------
    A ----3---3---5--3-------------------------------------------
    E --5---5----------------------------------------------------
    
    Repeat 
    
    	Am		    Dm    Am
    Meri awaz suno mujhe azad karo
    	C    G     E   Am
    Meri awaz suno insaf do
      Am	 C G  E  Am
    Azad karo Insaf do
    
    		  Am	   C	
    Karon kuon ghulami teri
        Dm            Am
    Ghulami teri kuon zalaman
    	      Am  E	  C
    Mangon na Khudai teri
        Dm               C	G	E
    Mangon men to haq zalama
    
    Meri awaz suno mujhe azad karo
    Meri awaz suno insaf do
    Azad karo Insaf do
    Tere sang zamana sara 
    Khuda he mere sang zalama
    Meri awaz suno mujhe azad karo
    Meri awaz suno insaf do
    Azad karo Insaf do
    

    source from UltimateGuitar.Com
    http://www.ultimate-guitar.com/tabs/j/junoon/meri_awaz_suno_ver2_tab.htm
     
  4. ntn_sk

    ntn_sk New Member

    thanx, you've done a gr8 job dear..
     

Share This Page