Req : Aankh hai bhari bhari

Discussion in 'Hindi Guitar Tabs - Submit or Request' started by BaAaLi, Sep 28, 2004.

  1. BaAaLi

    BaAaLi New Member

    Hello ppl... I need Aankh hai bhari bhari aur tum muskuranay ki baat karte hoo CHORDS ... will b waiting for the response

    Regards,
    BaAaLi
     
  2. Dj Sam

    Dj Sam New Member

    And The Tabs too :D
     
  3. urmilus

    urmilus New Member

    try this

    i got this tabs from this site only

    initial guitar melody.......>>
    E|-----------9--6-------------------------------------|
    B|--7--9--7----------9--7----7/9---7------------------|
    G|----------------------------------------------------|
    f# g# f# c# a# g# f# f#/g# f#

    E|-----------9--6-------------------------------------|
    B|--7--9--7----------9--7----7/9---7------------------|
    G|----------------------------------------------------|
    f# g# f# c# a# g# f# f#/g# f#

    E|-------------4--------------------------------------|
    B|--6--4--6-4-----6---4--2--4-------------------------|
    G|-----------------------------3----------------------|
    f d# f d# g# f d# c# d# a#

    E|----------9--6--------------------------------------|
    B|-7--9--7----------9--7----7/9---7--7/9---7----------|
    G|----------------------------------------------------|
    f# g# f# c# a# g# f# f#/g# f# f#/g# f#
    --------------------------------------------------------------------------

    E|--------6---9--6-----------7/9--6-------------------|
    B|--7--9------------9--7--------------9---------------|
    G|----------------------------------------------------|
    f# g# a# c# a# g# f# b/c# a# g#
    aankh hai bhari bhari aur tum

    E|-----------6---9---6------6-------------------------|
    B|--7--7--9-------------9------9---7------------------|
    G|----------------------------------------------------|
    f# f# g# a# c# a# g# a# g# f#
    muskuraane ki baat karte ho
    --------------------------------------------------------------------------------

    E|-------11--9-13-11--9-13-13---11--------------------|
    B|----7-----------------------------------------------|
    G|----------------------------------------------------|
    f# d# c# f d# c# f f d#
    mere haalat aise hain

    E|---9---7----11-11--9-----7-6---11--11-9-------------|
    B|----------------------------------------------------|
    G|----------------------------------------------------|
    c# b d# d# c# b a# d# d# c#
    ki main kuch kar nahi sakta


    :cool: :beer:
     
  4. taquila

    taquila New Member

    tabs are well, but like BaAaLi, I am also looking 4 the CHORDS. Can anyone figure out please?
     
  5. gautam_njoy

    gautam_njoy New Member

    hey those were really nice ones..
     
  6. hotguy_me

    hotguy_me New Member

    I will try to figurte out the chords guys :)
     

Share This Page