Req: Aadat Live Vide

Discussion in 'Pakistani Guitar Tabs - Submit or Request' started by Khopdi, Feb 22, 2006.

  1. Khopdi

    Khopdi New Member

    Okay, right now... im doing two things at a time...
    for the ppl who dont know what this aadat live vibe is...

    I uploaded the song... which i hope the mods will allow me to link to u guys
    its a video and hopefully, you'll be able to d'load it...
    http://www.filelodge.com/files/room11/282462/jal.bikhra.hoon.main.vibe.live.wmv

    (@mods, its my personal file, not a link to any other website)

    There is this part in the song though... the solo
    the
    --4-5-4-4-4-
    ---------------7-5-4-4-4 etc etc

    he kinda changed it... its like the extended version...
    you guys have got to get me that... i wish i was good at solos... but.... :cry2:

    pls pls pls... help me out...
    ill really appreciate it..
    thanks a ton
    have phun

    Cheers
    AllahHafiz
     
  2. limaj_daas

    limaj_daas Guitar Pro Maniac

    Dunno bout da solo, but i figured out the tabs for the intro(needs perfection, i mean, the tab is not 100% correct):


    e|-------------------------------------------------------------------|
    b|----------5------5------5------5-----------------------------------|
    g|-----6------6------6------6------6---------------------------------|
    d|---6---6------6------6------6------6-------------------------------|
    a|-4-----------------------------------------------------------------|
    e|-------------------------------------------------------------------|

    e|-------------------------------------------------------------------|
    b|-5-5h7p5-4-2-0-----------------------------------------------------|
    g|---------------4h5p4-2-0h2p0---------------------------------------|
    d|-----------------------------4-6-4-6-------------------------------|
    a|-------------------------------------4-5-4-5---4-------------------|
    e|---------------------------------------------0---5-----------------|

    Next he plays a chord then played muted strings and another chord and muted strings and on and on...
     
  3. Khopdi

    Khopdi New Member

    Thx limaj_dass

    Really helpfull, I havent tried the tabs, will review it later for you

    The chords though:

    I think he plays Cm *mute* then A *mute*
    then, He plays Cm *mute* strum B once and then A *mute*... again reverse then play again and then the music starts....

    pretty easy with the chords, but then that solo is off the hook...
    I have to get to play that.... I have a show coming up soon, im wishing i can play that solo... sure shot impression impressive...

    Pls help me out...
    thx again limaj_daas
    Cheers :beer:
     

Share This Page