req. 1000 points on lamhay solo....

Discussion in 'Pakistani Guitar Tabs - Submit or Request' started by Hav0c_x, Sep 24, 2005.

  1. Hav0c_x

    Hav0c_x New Member

    yaar i knoiw the tabs..... 666 444 666 444..... but watever i do it doesnt souind riet.. can anyone help me...plzzzzz... upload a sound file if u have to.... i'll give 1000 points to the one helps most...
     
  2. Orange Guitar

    Orange Guitar IGT's ALLROUNDER

    no it is wrong....original is this:

    |-----------------------------------------------------------------------|
    |---4-------4------4-------4-------4------4---------9-11s12-11--|
    |------6-6----4-4----6-6----4-4----6-6----4-4--------------------|
    |-----------------------------------------------------------------------|
    |-----------------------------------------------------------------------|
    |-----------------------------------------------------------------------|

    |------------------------------------------------------------------9----|
    |---4-------4------4-------4-------4------4---------9-11-12-------|
    |------6-6----4-4----6-6----4-4----6-6----4-4--------------------|
    |-----------------------------------------------------------------------|
    |-----------------------------------------------------------------------|
    |-----------------------------------------------------------------------|

    |---------------------------------9s12-11-11h12p12-9-11-------|
    |-12-11-9s11-9s7-9-11-12---------------------------------------|
    |-----------------------------------------------------------------------|
    |-----------------------------------------------------------------------|
    |-----------------------------------------------------------------------|
    |-----------------------------------------------------------------------|
     
  3. Quadrophenia

    Quadrophenia New Member

    the original solo the song is in..is in the scale C# dorian
    in the live version.. gohar is using G#m pentatonic scale.
     
  4. shak

    shak Harrr!

    C# dorian isnt a scale ... its a mode ..
    the scale for root C# and mode dorian would be Bmajor ...

    so you can say that the original solo is in Bmajor scale and in the live version he uses G#m penta scale ..

    be careful .. you know i dun like people who dunt know what they are talking about
     
  5. shak

    shak Harrr!

    Bmajor scale = B - C# - D# - E - F# - G# - A# - B (incase you didnt knew)
    and according to this .. the tabs given by orange are in Bmajor!!!!!
    so i think the tabs should be fine
     
  6. Hav0c_x

    Hav0c_x New Member


    this can possibly not be the solo.... even if mine is wrong this cant be it.. bcoz it slow down the solo u can distinctly hear that the guiatrist is playing two different frets simaltaneously and picking each 3 times...... if u dont beleive me slow it down using any software to halfits speed or tempo and lisen
    carefully....
     
  7. Orange Guitar

    Orange Guitar IGT's ALLROUNDER

    yar...i tabbed it in slow version....i mean i slowed the speed of song and then listen 2 the notes he is playing...this is correct...i m not beggin u for the points....it was just help!
     
  8. shak

    shak Harrr!

    i think the problem is in how the notes are picked .. you need a good ear for that .. but orange's gutiar tabs do come close.
     
  9. Orange Guitar

    Orange Guitar IGT's ALLROUNDER

    shahrukh said it....wht do u say?
     
  10. ahsanai_12

    ahsanai_12 New Member

    hmmmm...pretty close
     
  11. Quadrophenia

    Quadrophenia New Member

    @shahrukh..thanx for that though i'm still confused about the c#dorian and B major..scale

    cant u play B major scale in a number of different places?..those different places called modes?
    so like for Bmajor scale i cud also play ..
    err
    '''a dorian pattern beggenning at root c# '''

    why wud i call that a bmajor scale and not c# dorian scale?
    is it coz u always relate it to the parent scale?
     
  12. shak

    shak Harrr!

    you cant say that cuz C#dorian is not a scale at all!
    you can say:
    Bmajor scale, with C# as the root and the mode dorian ...
    C#dorian scale ... means nothin .. especially if you are talking to a beginner ...
    its better to name the scale or the poor guy will live his life thinking that C#dorian is a scale.
     
  13. Quadrophenia

    Quadrophenia New Member

    oh okay..i get it now...and yes i been doing my theory..well in the summers i did soem of it..apparently 'everything uses theory' in music so i ended up doing some in a rush as u can tell :p
    thanx once again!!
     
  14. shak

    shak Harrr!

    well its good that you are taking your theory seriously .. i neva did .. and i still regret it .. but its neva too late to start learning is it? ... anyway .. good on ya.
     
  15. Quadrophenia

    Quadrophenia New Member

    ive stopped with the theory now..am at uni..so dont get enough time even to practise back in the old days(couple months ago) when i was unemployed and had no life i sat and practised loads..and did abit of theory coz i wanted to do it..
    speaking of which i just asked a friend to ask zulfi what scale the bulleya solo was in :p and he said A minor and changes between that and A major ''here and there'' he says ;)
     
  16. Orange Guitar

    Orange Guitar IGT's ALLROUNDER

    u know...goher dont even know abt scales and mods....zulfi created half of the music!!!
     
  17. shak

    shak Harrr!

    hahahaha .... changes betweeen "here and there" ... lol ....
     
  18. Quadrophenia

    Quadrophenia New Member

    @orange..i think gohar does know his theory..he took his lessons from xulfi..what ihear and apparently doesnt admit his mistakes ;)..
    whole of dil haaray solo hes u using G major scale but a dorian mode with r00t A , anyways thats just me.wink @ shahrukh.
     
  19. Orange Guitar

    Orange Guitar IGT's ALLROUNDER

    so where are my 1000 points??????????????????????
     
  20. Spellbinder

    Spellbinder Crescentarian

    I like the one given by orange
     

Share This Page