Real Hotel California Unplugged

Discussion in 'Hindi Guitar Tabs - Submit or Request' started by JSatriani, Dec 5, 2010.

?

Doy u guys like it

  1. Tell me truth

    100.0%
  2. Be frank

    0 vote(s)
    0.0%
  1. JSatriani

    JSatriani New Member

    Hotel California Unplugged

    Intro Lead:

    |Bm------------------------------------|A------------------------------|
    |----------------2-3-5-7-7/8\7-5/7~~~~-|--------3-2--------------------|
    |---4-4h6p4/3-4------------------------|----2h4------0-2-2h4-2---------|
    |--------------------------------------|-----------------------4/2-----|
    |--------------------------------------|---------------------------5/7-|
    |--------------------------------------|-------------------------------|

    REPEAT the 9 8 7p0 and 9 8 10p0 part when u come to that part below

    Em-------0------0------0------0|---7p0---10p0-|-----7-6-7-9-10-9-10-12/-14~-|
    -------0------0------0------0--|--8-----8-----|---8-------------------------|
    -----0------2------4------7----|-9-----9------|-9---------------------------|
    ---2------4------5------9------|--------------|-----------------------------|
    -------------------------------|--------------|-----------------------------|

    |Bm---2h3-2---2-2---2----------------|A------------------------|
    |-----------5-----5---3--5p3---3-----|--------3p2----2--2------|
    |----------------------------4---2/4-|-----2-4-----4------2--4-|
    |------------------------------------|-------------------------|
    |------------------------------------|-------------------------|
    |------------------------------------|-------------------------|

    |-----------------7--9-10-9-10/12-|--------------0--------0--------0-------0---|
    |-----5-8--7-7-8h10---------------|------------0--------0--------0-------0-----|
    |-6-7-----------------------------|----------0--------2--------4-------7-------|
    |---------------------------------|-------2--------4--------5--------9---------|
    |---------------------------------|--------------------------------------------|
    |---------------------------------|--------------------------------------------|

    |-7p0---10-12-10-------|---9-9h10p9/7-7h9p7/6--3-2-2--2-3-2--0-2---------|
    |----------------12----|-----------------------------------------3-2-----|
    |----------------------|---------------------------------------------4-3-|
    |----------------------|-------------------------------------------------|
    |----------------------|-------------------------------------------------|
    |----------------------|-------------------------------------------------|

    The rhythm is pretty simple the chords being

    Bm F# A E G D Em F#

    Main Lead:

    e:-------------------|-------------------|------------------------|
    B:-------------------|-------------------|---------9--------------|
    G:--------9~---------|-9-9-9--9-7-6-9-7-6|-7-6-4-3----------------|
    D:-8-9-11------------|-------------------|------------------------|
    A:-------------------|-------------------|------------------------|
    E:-------------------|-------------------|------------------------|

    e:-9-10-12-12-12-12--|-12-10-9----10-9----------------------------|
    B:-------------------|---------12------12-10--9~--9p7-------------|
    G:-------------------|-------------------------------7/9----------|
    D:-------------------|--------------------------------------------|
    A:-------------------|--------------------------------------------|
    E:-------------------|--------------------------------------------|

    e:----------------------------------------|-----chords(Em n F#)roll upwards----|
    B:----------------------------------------|------------------------------------|
    G:-----------------------0---2h4p2--4-----|------------------------------------|
    D:---------0---2--0-4--2---4----------4-4-|------------------------------------|
    A:-----0-2---4----------------------------|------------------------------------|
    E:-2-3------------------------------------|------------------------------------|

    e:---------------------------------|------------------------------------|
    B:---------------3-5-7--7h8p7p5-7~-|-----7-7h8p7/5--5h7p5/3--3h5p3/2----|
    G:-4-4h6p4-3-4-6-------------------|-7-9------------------------------4-|
    D:----------|----------------------|------------------------------------|
    A:---------------------------------|------------------------------------|
    E:---------------------------------|------------------------------------|

    e:-----0--7-9-7----14------|--------------------------------------|
    B:---2----------11---------|--------------------------------------|
    G:-3-----------------------|-11-11-11-9-9~--9-7-7--6--------------|
    D:--------------------12/--|-------------------------9-7-6~-------|
    A:-------------------------|--------------------------------------|
    E:-------------------------|--------------------------------------|

    e:------------------------0-|--------------------------------------|
    B:--------------------------|--------------------------------------|
    G:---7h9p7/6-6h7p6/4--2-1---|----------------------4-4h6p4/3-3-4---|
    D:--------------------------|-2-4--5h7p5/4-4-5--5-7----------------|
    A:--------------------------|--------------------------------------|
    E:--------------------------|--------------------------------------|

    e:-------3-3/5-5-5-5/7-5-3--5-|---------------------------|
    B:---3-5---5/7-7-7-7/8-7-5--7-|---------------0-2-3-5-----|
    G:-6--------------------------|--------0-2-4-6------------|
    D:----------------------------|-0-2-4-5-------------------|
    A:----------------------------|---------------------------|
    E:----------------------------|---------------------------|

    e:-------3p0---7p3---10p7---12p10------------------------------------------------|
    B:-5p3------0-----5------8-------12~---7-7h8p7/5-5--5h7-5--2h3p2-0-2---3-2-3-5---|
    G:----4-------------------------------------------7------7-----------------------|
    D:-------------------------------------------------------------------------------|
    A:-------------------------------------------------------------------------------|
    E:-------------------------------------------------------------------------------|

    2 guitarists play this at the end -

    Bm F#7
    e:-10p7---10p7---10p7-|---10p7---10p7-----|-9p6---9p6---9p6-|-/14--------------|
    B:--7p3-7--7p3-7--7p3-|-7--7p3-7--7p3-7---|-5p2-7-5p2-7-5p2-|--9/11------------|
    G:------4------4------|-4------4------4---|-----3-----3-----|------------------|
    D:--------------------|-------------------|-----------------|------------------|
    A:--------------------|-------------------|-----------------|------------------|
    E:--------------------|-------------------|-----------------|------------------|

    A E G
    e:-9p5---9p5---9p5-|---9p5---9p5-----|-7p4---7p4---7p4-|/12--------------|-7p3---7p3---7p3-|
    B:-5p2-5-5p2-5-5p2-|-5-5p2-5-5p2-5---|-5p0-5-5p0-5-5p0-|-11/13-----------|-3p0-3-3p0-3-3p0-|
    G:-----2-----2-----|-2-----2-----2---|-----------------|-----------------|-----0-----0-----|
    D:-----------------|-----------------|-----6-----6-----|-----------------|-----------------|
    A:-----------------|-----------------|-----------------|-----------------|-----------------|
    E:-----------------|-----------------|-----------------|-----------------|-----------------|

    D7 Em
    e:---7p3---7p3-----|-5p2---5p2---5p2-|-/10--------------|-3p0---3p0---3p0-|---3p0---3p0-------|
    B:-3-3p0-3-3p0-3---|-----3-----3-----|------------------|-----0-----0-----|-0-----0-----0-2/3-|
    G:-0-----0-----0---|-5p2---5p2---5p2-|--12/14-----------|-4p0---4p0---4p0-|---4p0---4p0---3/4-|
    D:-----------------|-----4-----4-----|------------------|-----2-----2-----|-2-----2-----2-----|
    A:-----------------|-----------------|------------------|-----------------|-------------------|
    E:-----------------|-----------------|------------------|-----------------|-------------------|
     
  2. JSatriani

    JSatriani New Member

    Gud work...!

    Nice Job....! Keep it up....!
     
  3. ionoid.99

    ionoid.99 New Member

Share This Page