Real Bikhra Hoon Mein Unplugged !

Discussion in 'Pakistani Guitar Tabs - Submit or Request' started by ImR@|\|, Dec 1, 2004.

  1. ImR@|\|

    ImR@|\| GuiTar MaNiaC

    UrL= [SNIP]

    Band = Jal
    Tabbed my = ImR@|\|
    comments at = [SNIP]

    |---0-----0----0--*----------0--------------|
    |---0-----0----0--*----------0--------------|
    |---6-----6----6--*----------6--------------|
    |---6-----6----6--*----------6--------------|
    |---4-----4----4--*----------4--------------|
    |--------------------------------------------|


    E------0--0----------0----0------|
    e-------0--0----------0----0-----|
    B--------6--6----------6----6----|
    G---6-------------6--------------|
    D--6-6-----------6-6-------------|
    A-4-------------4----------------|
    E--------------------------------|

    E------0--0----------0----0------|
    e-------0--0----------0----0-----|
    B--------6--6----------6----6----|
    G---6-------------6--------------|
    D--6-6-----------6-6-------------|
    A-4-------------4----------------|
    E--------------------------------|


    e------0---0----0----0-------0-----0-----0-----|
    B-------0---0----0----0--------0-----0-----0---|
    G---6--------6----6----6---6-----6-----6-----6-|
    D--6-6--------------------6-6------------------|
    A-4----------------------4---------------------|
    E-----------------------------------------------|
    mana bikhra hoon mein abhi


    e------0---0---0----0-----0-------|
    B-------0---0---0----0-----0------|
    G---2--------2---2----2-----2-----|
    D--2-2----------------------------|
    A-0-------------------------------|
    E---------------------------------|
    mein nay khawab peroe thay...



    e------0---0-------------------------|
    B-------0---0------------------------|
    G---6----6---6--6---2-2-2-2--4-4-4--|
    D--6-6----------6---2-2-2-2--4-4-4--|
    A-4-------------4---0-0-0-0--2-2-2--|
    E-------------------------------------|
    teri sasoon mein ghum ho abhi,meri chahat adhoori hai !




    e-------------------------------|
    B-------------------------------|
    G-6-*-6-*-6-*-6-*-6-----------|
    D-6-*-6-*-6-*-6-*-6-----------|
    A-4-*-4-*-4-*-4-*-4-----------|
    E-------------------------------|



    e--------------------------------|
    B-4-5-4-5-*-4-5-----------------|
    G-6-6-6-6-*-6-6-----------------|
    D-6-6-6-6-*-6-6-----------------|
    A-4-4-4-4-*-4-4-----------------|
    E--------------------------------|


    e--------------------------------|
    B-2-3-2-3-*-4-5-4-5-------------|
    G-4-4-4-4-*-6-6-6-6-------------|
    D-4-4-4-4-*-6-6-6-6-------------|
    A-2-2-2-2---4-4-4-4-------------|
    E--------------------------------|

    e--------0-0---------------------|
    B-2-3-*-3-3---------------------|
    G-4-4-*-4-4---------------------|
    D-4-4-*-4-4---------------------|
    A-2-2-*-2-2---------------------|
    E--------------------------------|






    e-x-x-x-x------------------------|
    B-x-x-x-x------------------------|
    G-6-6-6-6-----------------------|
    D-6-6-6-6-----------------------|
    A-4-4-4-4-----------------------|
    E-x-x-x--x-----------------------|
    mushkilain jab bhi aa


    e-x-x-x-x------------------------|
    B-x-x-x-x------------------------|
    G-4-4-4-4-----------------------|
    D-4-4-4-4-----------------------|
    A-2-2-2-2-----------------------|
    E-x-x-x-x------------------------|
    ahjain gi

    e-x-x-x-x--x---------------------|
    B-x-x-x-x--x---------------------|
    G-2-2-2-2--2--------------------|
    D-2-2-2-2--2--------------------|
    A-x-x-x-x--x---------------------|
    E-x-x-x-x--x---------------------|
    dard had se guzar


    e-x-x-x-x------------------------|
    B-x-x-x-x------------------------|
    G-4-4-4-4-----------------------|
    D-4-4-4-4-----------------------|
    A-2-2-2-2-----------------------|
    E-x-x-x-x------------------------|
    jaiga.....!



    e-x-x-x-x------------------------|
    B-x-x-x-x------------------------|
    G-6-6-6-6-----------------------|
    D-6-6-6-6-----------------------|
    A-4-4-4-4-----------------------|
    E-x-x-x--x-----------------------|
    koi ghum na phir hoga


    e--------------------------------|
    B--------------------------------|
    G-4-4-4-4-----------------------|
    D-4-4-4-4-----------------------|
    A-2-2-2-2-----------------------|
    E-x-x-x-x------------------------|
    mujhe gar

    e-x-x-x-x--x---------------------|
    B-x-x-x-x--x---------------------|
    G-2-2-2-2--2--------------------|
    D-2-2-2-2--2--------------------|
    A-x-x-x-x--x---------------------|
    E-x-x-x-x--x---------------------|
    khawabon mein tum


    e-x-x-x-x------------------------|
    B-x-x-x-x------------------------|
    G-4-4-4-4-----------------------|
    D-4-4-4-4-----------------------|
    A-2-2-2-2-----------------------|
    E-x-x-x-x------------------------|
    ahoo gay



    e-x-x-x-x------------------------|
    B-x-x-x-x------------------------|
    G-6-6-6-6-----------------------|
    D-6-6-6-6-----------------------|
    A-4-4-4-4-----------------------|
    E-x-x-x-x------------------------|
    ab tou addat si hai

    e--------------------------------|
    B--------------------------------|
    G-4-4-4-4------------------------|
    D-4-4-4-4------------------------|
    A-2-2-2-2------------------------|
    E-x-x-x-x-------------------------|
    Muj ko

    e-x-x-x-x--x-----------------------|
    B-x-x-x-x--x-----------------------|
    G-2-2-2-2--2----------------------|
    D-2-2-2-2--2----------------------|
    A-x-x-x-x--x-----------------------|
    E-x-x-x-x--x-----------------------|
    asay jeenay


    e-x-x-x-x--------------------------|
    B-x-x-x-x--------------------------|
    G-4-4-4-4-------------------------|
    D-4-4-4-4-------------------------|
    A-2-2-2-2-------------------------|
    E-x-x-x-x--------------------------|
    Mein



    e-x-x-x-x--------------------------|
    B-x-x-x-x--------------------------|
    G-6-6-6-6-------------------------|
    D-6-6-6-6-------------------------|
    A-4-4-4-4-------------------------|
    E-x-x-x-x--------------------------|
    hay hay hayyyy


    e----------------------------------|
    B----------------------------------|
    G-4-4-4-4-------------------------|
    D-4-4-4-4-------------------------|
    A-2-2-2-2-------------------------|
    E-x-x-x-x--------------------------|

    ho ho ho hoooooo


    e-x-x-x-x--x------------x--x--x-----|
    B-x-x-x-x--x------------x--x--x-----|
    G-2-2-2-2--2------------6--6--6----|
    D-2-2-2-2--2------------6--6--6----|
    A-x-x-x-x--x------------4--4--4-----|
    E-x-x-x-x--x------------x--x--x-----|


    hoooooooooooOOOooOOO00Oooo hoo


    e-x-x-x-*-x--------------------------|
    B-x-x-x-*-x--------------------------|
    G-6-6-6-*-6-------------------------|
    D-6-6-6-*-6-------------------------|
    A-4-4-4-*-4-------------------------|
    E-x-x-x-x-x--------------------------|
    WaNnn` Annann`



    e-x-x-x-x--x------------x--x---x------|
    B-x-x-x-x--x------------x--x---x------|
    G-2-2-2-2--2------------4--4---4-----|
    D-2-2-2-2--2------------4--4---4-----|
    A-x-x-x-x--x------------2--2---2------|
    E-x-x-x-x--x------------x--x---x-------|
    Ann` Ann`



    e-x-x-x-*-x----------------------------|
    B-x-x-x-*-x----------------------------|
    G-6-6-6-*-6---------------------------|
    D-6-6-6-*-6---------------------------|
    A-4-4-4-*-4---------------------------|
    E-x-x-x-x-x----------------------------|
    WaNnn` Annann`



    e-x-x-x-x--x------------x--x---x--------|
    B-x-x-x-x--x------------x--x---x--------|
    G-2-2-2-2--2------------4--4---4-------|
    D-2-2-2-2--2------------4--4---4-------|
    A-x-x-x-x--x------------2--2---2--------|
    E-x-x-x-x--x------------x--x---x--------|
    Ann` Ann`


    Giving a little Pause !



    e-0--0--0--0---------0---0---0---------|
    B-0--0--0--0---------0---0---0---------|
    G-6--6--6--6---------4---4---4---------|
    D-6--6--6--6---------4---4---4---------|
    A-4--4--4--4---------2---2---2---------|
    E-x--x--x--x----------x----x---x--------|
    Door Jitna Bhi tum mujh say





    e-0--0--0--0--0----------0--0--0-------|
    B-0--0--0--0--0----------0--0--0-------|
    G-2--2--2--2--2----------4--4--4-------|
    D-2--2--2--2--2----------4--4--4-------|
    A-x--x--x--x--x-----------2--2--2-------|
    E-x--x--x--x--x-----------x--x--x-------|
    Pass teray mein



    e-0--0--0--0---------0---0---0----------|
    B-0--0--0--0---------0---0---0----------|
    G-6--6--6--6---------4---4---4----------|
    D-6--6--6--6---------4---4---4----------|
    A-4--4--4--4---------2---2---2----------|
    E-x--x--x--x---------x---x---x-----------|
    Oo` Ab tu Addat see hay Mujh kOOooo




    e---0----------------------------------|
    B---0----------------------------------|
    G---2----------------------------------|
    D---2----------------------------------|
    A---x----------------------------------|
    E---x----------------------------------|
    Hoo



    Enjoy ! :beer:
     
  2. BIG_EVIL

    BIG_EVIL Guitaring Machine

    nice tabs imran
     
  3. ImR@|\|

    ImR@|\| GuiTar MaNiaC

    Thanx :)
     
  4. moadhia

    moadhia New Member

    strumming

    imran can u post the strumming for this song too
     
  5. umarboy

    umarboy Tabber

    i cant believe u did this
    iv posted its tab long time back
    just a little slight change
    which doesnt really matter
    but hey
    if this makes u famous :D im cool
    but next time :) try working out things urself..
    no offence i might be wrong too
     
  6. ImR@|\|

    ImR@|\| GuiTar MaNiaC

    HEhe.. Bro Sum Changings too.. Try MAtChinG Ur Tabs n Mine !!!!!! :)
     
  7. umarboy

    umarboy Tabber

    yea sure i did that already...
    u have just added...few stuff...im 100% sure...u copy pasted and edit a lil..but its done now..so lets not talk abt it...it'll end into a stupid fight so chill...
     
  8. syed_420

    syed_420 New Member

    nice work guyzz!! i dono who post it. but i dont care i like the tabs and i m with it. but i m thanking both of u nice work!!
     
  9. BIG_EVIL

    BIG_EVIL Guitaring Machine

    is the strumming pattern similar to addat?
     
  10. ImR@|\|

    ImR@|\| GuiTar MaNiaC

    yuP same to Addat ... Agreeing with u Umar :)
     
  11. rizaaj

    rizaaj Forum Leader

    me too agree with umar
     
  12. umarboy

    umarboy Tabber

    i hate such things anyways
     
  13. ImR@|\|

    ImR@|\| GuiTar MaNiaC

    :s Aight
     

Share This Page