Rangon mein - Concert Version Done !

Discussion in 'Hindi Guitar Tabs - Submit or Request' started by ImR@|\|, Mar 28, 2005.

  1. ImR@|\|

    ImR@|\| GuiTar MaNiaC

    Hello PPl.. After a long wait Am back with Rangon mein Concert Version !
    It is available at http://j4jumpy.net/

    |----------------------------------------|
    |----------------------------------------|
    |----------------------------------------|
    |-----------2----3--------5--------------|
    |-2----3---------------------------------|
    |----------------------------------------|

    |----------------------------------------|
    |----------------------------------------|
    |----------------------------------------|
    |---------2-----7-7-7-7--5-5-5-5---3---|
    |-3---2---------------------------------|
    |----------------------------------------|

    |----------------------------------------|
    |----------------------------------------|
    |--------0---------0---------0-----------| X2
    |-----------3--------3---------3---------|
    |----3---------3-----------3----3--------|
    |-1---------------------1----------------|


    |----------------------------------------|
    |----------------------------------------|
    |-----------------2----------------------|
    |---------2---3--------------------------|
    |-2---3----------------------------------|
    |----------------------------------------|


    |----------------------------------------|
    |----------------------------------------|
    |----------------------------------------|
    |---------2-----8-8-8-8----7-7-7--5-----|
    |--2--3----------------------------------|
    |----------------------------------------|

    This intro goes along with the song.. Tera hay in rangon mein.. u will observe it while listening to it..


    (fig:2)
    |-----------------------------------------|
    |-----------------------------------------|
    |-------4-----------4---------------------|
    |----4----4------4----4-------------------|
    |-2---------------------------------------|
    |-------------3---------------------------|


    |----------------------------------------|
    |----------------------------------------|
    |-------4------------4-------------------|
    |----4----4-------4----4-----------------|
    |----------------------------------------|
    |-0-------------2------------------------|

    This part goes along with the humming.. Hmmm hmmm hmmmm... den farhan says Apnay hath zara tu jhoom lay.. !


    Hope u ppl like it.. :)

    Comments : imran_bahria007@hotmail.com
     
  2. aeg0

    aeg0 Guitarıng Alchemist

    shudnt this be in the pakistani tabs forum ?
     

Share This Page