Raghav-Angel eyes Tabs...

Discussion in 'IGT Soundtrack - Your Band, Your Gig, Your Music' started by faiqrock, Nov 7, 2005.

  1. faiqrock

    faiqrock XaiQ

    Hi every 1 So i made Angel eyes Tabs....Hope u like it...n this 1 is my own Tabs not Copied..pasted...
    so i hoping some feed back from u ppl;)hope u'll give comments and Reps:p
    thnx bye
    n there tabs are Speicaly for Beginners :rock: :rock: :rock:
    n heres the link of recording..to guide u how tu Play these Tabs...
    http://www.soundclick.com/bands/pageartist.cfm?bandID=397504
    bye
    e|--12--12--10--7--10--12------------------------|
    b|-----------------------------------------------|
    g|-----------------------------------------------|
    d|-----------------------------------------------|
    a|-----------------------------------------------|
    e|-----------------------------------------------|
    There's no one above it

    e|--12--12--10--7--10--12------------------------|
    b|-----------------------------------------------|
    g|-----------------------------------------------|
    d|-----------------------------------------------|
    a|-----------------------------------------------|
    e|-----------------------------------------------|
    We all need some loving

    e|--12--12--10--7--10--12------------------------|
    b|-----------------------------------------------|
    g|-----------------------------------------------|
    d|-----------------------------------------------|
    a|-----------------------------------------------|
    e|-----------------------------------------------|
    Some kissing and hugging

    e|--12--10--12--10--7------12--10--12--10-------|
    b|-----------------------------------------------|
    g|-----------------------------------------------|
    d|-----------------------------------------------|
    a|-----------------------------------------------|
    e|-----------------------------------------------|
    Like yeah, yeah, yeah, yeah



    e|--12--12--10--7--10--12------------------------|
    b|-----------------------------------------------|
    g|-----------------------------------------------|
    d|-----------------------------------------------|
    a|-----------------------------------------------|
    e|-----------------------------------------------|
    You can't live without it

    e|--12--12--10--7--10--12------------------------|
    b|-----------------------------------------------|
    g|-----------------------------------------------|
    d|-----------------------------------------------|
    a|-----------------------------------------------|
    e|-----------------------------------------------|
    Yeah I used to doubt it


    e|--12--12--10--7--10--12------------------------|
    b|-----------------------------------------------|
    g|-----------------------------------------------|
    d|-----------------------------------------------|
    a|-----------------------------------------------|
    e|-----------------------------------------------|
    But now that I've found it

    e|--12--10--12--10--7------12--10--12--10-------|
    b|-----------------------------------------------|
    g|-----------------------------------------------|
    d|-----------------------------------------------|
    a|-----------------------------------------------|
    e|-----------------------------------------------|
    Yeah, yeah, yeah, yeah


    e|-12--12--12--12--12---12--11--10--9--8-7--7----|
    b|-----------------------------------------------|
    g|-----------------------------------------------|
    d|-----------------------------------------------|
    a|-----------------------------------------------|
    e|-----------------------------------------------|
    Cause my baby's got Oooooooooooooooooooo Angel eyes

    e|-12--12--12--12--12---12--11--10--9--8-7--7----|
    b|-----------------------------------------------|
    g|-----------------------------------------------|
    d|-----------------------------------------------|
    a|-----------------------------------------------|
    e|-----------------------------------------------|
    Yeah my baby's got Oooooooooooooooooooo Angel eyes


    e|--12-12-12---14-12--14s16-14--10----------------|
    b|-----------------------------------------------|
    g|-----------------------------------------------|
    d|-----------------------------------------------|
    a|-----------------------------------------------|
    e|-----------------------------------------------|
    Well now I've been down and lonely

    e|-10--10--10--12-10--12s14--12--10--8---------|
    b|-----------------------------------------------|
    g|-----------------------------------------------|
    d|-----------------------------------------------|
    a|-----------------------------------------------|
    e|-----------------------------------------------|
    I wish if only


    e|-8-8-8-8--10-8-10s12-10--8-7-------------------|
    b|-----------------------------------------------|
    g|-----------------------------------------------|
    d|-----------------------------------------------|
    a|-----------------------------------------------|
    e|-----------------------------------------------|
    The whole world could feel my vibe



    e|--12-12-12---14-12--14s16-14--10----------------|
    b|-----------------------------------------------|
    g|-----------------------------------------------|
    d|-----------------------------------------------|
    a|-----------------------------------------------|
    e|-----------------------------------------------|
    We all need one simple reason

    e|-10--10--10--12-10--12s14--12--10--8---------|
    b|-----------------------------------------------|
    g|-----------------------------------------------|
    d|-----------------------------------------------|
    a|-----------------------------------------------|
    e|-----------------------------------------------|
    Something to believe in


    e|-8-8-8-8--10-8-10s12-10--8-7-------------------|
    b|-----------------------------------------------|
    g|-----------------------------------------------|
    d|-----------------------------------------------|
    a|-----------------------------------------------|
    e|-----------------------------------------------|
    I know that I've got mine


    e|-12--12--12--12--12---12--11--10--9--8-7--7----|
    b|-----------------------------------------------|
    g|-----------------------------------------------|
    d|-----------------------------------------------|
    a|-----------------------------------------------|
    e|-----------------------------------------------|
    'Cause my baby's got Oooooooooooooooooooo Angel eyes

    e|-12--12--12--12--12---12--11--10--9--8-7--7----|
    b|-----------------------------------------------|
    g|-----------------------------------------------|
    d|-----------------------------------------------|
    a|-----------------------------------------------|
    e|-----------------------------------------------|
    Yeah my baby's got Oooooooooooooooooooo Angel eyes

    Then Again
    There's no one above it
    We all need some loving
    Some kissing and hugging
    Like yeah, yeah, yeah, yeah

    You can't live without it
    Yeah I used to doubt it
    But now that I've found it
    Yeah, yeah, yeah, yeah

    'Cause my baby's got
    Oooooooooooooooooooo
    Angel eyes
    Yeah my baby's got
    Oooooooooooooooooooo
    Angel eyes

    Well now I've been down and lonely
    I wish if only
    The whole world could feel my vibe
    We all need one simple reason
    Something to believe in
    I know that I've got mine

    Well now I've been down and lonely
    I wish if only
    The whole world could feel my vibe
    We all need one simple reason
    Something to believe in
    I know that I've got mine

    'Cause my baby's got
    Oooooooooooooooooooo
    Angel eyes
    Yeah my baby's got
    Oooooooooooooooooooo
    Angel eyes
     

    Attached Files:

  2. CrYpTiC_angel

    CrYpTiC_angel Rebelle!

    EDIT: :grin:
     
  3. faiqrock

    faiqrock XaiQ

    Hahahahaha:d
    yaar i hv recorded aswell ok

    Hahah nice 1:p
     
  4. abhimanjrekar

    abhimanjrekar ----> Zhol-Man<----

    hey y did u play it only on one string....try usin differnt strings.....these r ok as far as beginners ar concerned...but.hmm..use diff strings..don go only on one ...................
     
  5. faiqrock

    faiqrock XaiQ

    yaar Read this
    n there tabs are Speicaly for Beginners
    n i m not a machine who can make tabs like this....it will take some time bro...
    neva mind
    bye
     
  6. abhimanjrekar

    abhimanjrekar ----> Zhol-Man<----

    no offence dude..machines don make tabs..i gues u din get me..wht i wanted u to say was u get the same notes on other strings also..so try using the other also.....like wise..newayz good work keep up.... :beer:
     
  7. faiqrock

    faiqrock XaiQ

    Ok yaar...i promise ill work on it:)thnx
     
  8. faiqrock

    faiqrock XaiQ

    49 Views n just 2 Replies:(:(
     
  9. mr singh

    mr singh New Member

    this guy (Raghav) cant sing 2 save his life... the truth is known wen he is herd live, lol... he is ultimately crap, well dun on the tab tho
     
    aeg0 likes this.

Share This Page