quit playing games with my heart,(back street boys)

Discussion in 'English Guitar Tabs - Submit or Request' started by u04617, May 21, 2006.

  1. u04617

    u04617 New Member

    require,tabs & chordsfor "quit playing games with my heart",(back street boys)

    Hi buddies,
    i m looking for the complete guitar tabs for "quit playin games with my heart"in solo,
    by back street boys,is there any one can help me out
    plzzzzzzzzzzzzzzzzzzzzzzzzzzzzzzz
    plzzzzzzzzzzzzzzzzzzzzzzzzzzzzzzz
    do reply as soon as possible
     
  2. paranoid13rohan

    paranoid13rohan .: iNDiaN iDioT 3.0 :.

    well dis is d tabs 4 d intro ... d rest i shall post soon ...
    Code:
    	|---------------------------0---e
    	|---0----3-2-3----3-2-3--2------b
    	|-2----2--------2---------------g 
    	|-----------------------------2-D
    	|-------------------------------A
    	|-------------------------------E
    the tabs go from right to left ... i need 2 say dese coz i find ppl tabin d othr way round ... not dat i hav any probs wid dem ... jus makin myself clear ... enjoy ...
     
  3. bjr

    bjr Lady of the Evening

    wait...why are you tabbing it in reverse?
     
  4. paranoid13rohan

    paranoid13rohan .: iNDiaN iDioT 3.0 :.

    plz clarify ...

    i don't get what u r sayin?
    i've already mentiond dat i'm tabin frm rite 2 lft ...
    now iz dat not d rite way 2 tab ... r u tryin 2 say dat? ... plz clarify ...
     
  5. bjr

    bjr Lady of the Evening

    yes, that is indeed what I'm trying to say. Tab left to right.
     
  6. CrYpTiC_angel

    CrYpTiC_angel Rebelle!

    [blonde]maybe he's a lefty![/blonde]
     
    vini likes this.
  7. paranoid13rohan

    paranoid13rohan .: iNDiaN iDioT 3.0 :.

    Tabs + Chords : Quit Playing Games With My Heart - Backstreet Boys

    Song: QUIT PLAYING GAMES WITH MY HEART
    Group: BACKSTREET BOYS
    Album: BACKSTREET BOYS
    Code:
    NOTE: Tabs go from Right to Left. s-slide h-hammer
    Code:
    INTRO:
    	|---------------------------0---e
    	|---0----3-2-3----3-2-3--2------b
    	|-2----2--------2---------------g
    	|-----------------------------2-D
    	|-------------------------------A
    	|-------------------------------E
    
    Baby, ooh
    
    	|---------------------------0---e
    	|---0----3-2-3----3-2-3--2------b
    	|-2----2--------2---------------g
    	|-----------------------------2-D
    	|-------------------------------A
    	|-------------------------------E
    
    VERSE1: Brian
    
    Even in my heart I feel you're not being true to me
    
    	|-------------------------------------e
    	|-2-5s-5-3-3-3-3-32--0-02----02-3-2-2-b
    	|--------------------------2----------g
    	|-------------------------------------D
    	|-------------------------------------A
    	|-------------------------------------E
    
    Deep within my soul I feel, nothing's like it used to be 
    
    	|-----------------------------------e
    	|---0-23-3-3-3-32--0-02----02-3-2-2-b
    	|-2----------------------2----------g
    	|-----------------------------------D
    	|-----------------------------------A
    	|-----------------------------------E
    
    Sometime's I wish I could turn back time Impossible as it may seem
    
    	|--------------------------------------------e
    	|---0-23-3-3-3-3----0-2----2-5s-5-3s-3-2-2-2-b
    	|-2--------------2------2--------------------g
    	|--------------------------------------------D
    	|--------------------------------------------A
    	|--------------------------------------------E
    
    But I wish I could, so bad, baby
    
    	|------------------------------e
    	|------------0-02-----02-3-2-2-b
    	|-2-4h2-0-2---------2----------g
    	|------------------------------D
    	|------------------------------A
    	|------------------------------E
    
    CHORUS:
    
    Quit playing games with my heart ... my heart ... my heart ... my heart
    
    	|------------------------------------e
    	|-----0------0--0-02----0-2-3h-2-2-2-b
    	|-2-2----0-0----------2--------------g
    	|------------------------------------D
    	|------------------------------------A
    	|------------------------------------E
    
    I should have known from the start ... my heart ... my heart ... my heart 
    
    	|------------------------------------e
    	|-----0------0--0-02----0-2-3h-2-2-2-b
    	|-2-2----0-0----------2--------------g
    	|------------------------------------D
    	|------------------------------------A
    	|------------------------------------E
    
    VERSE2: Nick << Now that you have the tabs of VERSE1 ... I guess you can figure out the tabs of this Verse on your own ... I'd rather give you the chords here, which is also applicable for VERSE1. >>
    
    A                  E      D                       A
    I live my life the way to keep you coming back to me
    A                  E      D                             A
    Everything I do is for you so what is it that you can't see
    A                                   E    D                    A
    Sometime's I wish I could turn back time Impossible as it may seem
    A                      E      D       A
    But I wish I could, so bad, baby, you better
    
    CHORUS: << You already have the tabs of the CHORUS ... I'll give you the chords here ... >>
    
    A                                       E            D            A
    Quit playing games with my heart ... my heart ... my heart ... my heart
    A                                         E            D            A
    I should have known from the start ... my heart ... my heart ... my heart 
    
    BRIDGE: AJ
    
    Bm	                              E
    Baby baby the love that we had was so strong 
    
    	|-------------------2h-0--02-e
    	|-0-03-0-0-3h-0-3-0------3---b
    	|----------------------------g
    	|----------------------------D
    	|----------------------------A
    	|----------------------------E
                  D          A
    Can't keep on hanging in forever
    
    	|-2-0-------------e
    	|-----3-333-0-0-0-b
    	|-----------------g
    	|-----------------D
    	|-----------------A
    	|-----------------E
    
        Bm                    E                     D   A
    Oh, baby baby this is not right Let's stop this tonight
    
    	|-----0---------------------2h-0---02-2-e
    	|---0---3-0-3-0--0--3-0-3-0------3------b
    	|-2-------------------------------------g
    	|---------------------------------------D
    	|---------------------------------------A
    	|---------------------------------------E
    
    << The rest of the song has the same tabs and chords. >>
    Feel free to express your suggestions and criticism ... Thank You!!!
     
  8. paranoid13rohan

    paranoid13rohan .: iNDiaN iDioT 3.0 :.

    oh god! i've already tabbed it ... shall keep it in mind frm d nxt tym ... but am really confused ... i think i've found tabs goin frm rite to lft ... gotta check ... thanx
     
  9. bjr

    bjr Lady of the Evening

    Actually the correct chords would be

    A Bm G A
    I live my life the way to keep you coming back to me




    and same thing goes on till the bridge.
     
  10. u04617

    u04617 New Member

    Thanxxxxxxxxxxxxxxxxxxxxxxxxxx

    Thanx , alllllllllllllllll of u buddies ,
    thanxxxxxxxx,
    here i found, wat i was waiting for
     
  11. dreamsnatcher

    dreamsnatcher New Member

    Nice post!!!
     
  12. danger_zone

    danger_zone New Member

    thnx a lot
    I was looking for this :)
     

Share This Page