Pyar to Hona hi Tha - jab kisi ki taraf dil

Discussion in 'Hindi Guitar Tabs - Submit or Request' started by DesiPride143, Dec 15, 2003.

  1. DesiPride143

    DesiPride143 BEHAVE!

    Jab kisi ki taraf dil - pyar to hona hi tha

    here we go ya all

    e--5-4-2-2--2-2-2--2-2-4-5-7---
    Jab kisi ki taraf, dil, jhukne lage play slow
    Baat aa kar juba tak rukne lage

    e--10-9-7-7-7--4-4-7-4-5-5-5-5-
    Aankho aankho mein, ijhaar hone lage

    e--10-9-7-7--7-7-10-7-9-9-9-9--
    Bole do gar, tumhe pyar hone lage

    e--9-9-4-4-4--4--4-5-7-4-5---
    Hone lage, pyar, hone lage

    e--9-10-12-----14-14-12---9-9-9-10-12----10-10-9--
    B-------------12-------------------------------12-------------
    Pyar to hona hi tha pyar to hona hi tha

    peace

    aziz
     
  2. alirana

    alirana Old Time Guitarist

  3. RAM

    RAM New Member

    PLEASE GIVE ME THE ACTUAL CHORDS (eg.Am.... etc)
    I HOPE U POST IT SOON
     
  4. .:SpY_GaMe:.

    .:SpY_GaMe:. New Member

    ^^he left igt
     
  5. .:VinAY:.

    .:VinAY:. New Member

    umm so can ne1 else give it??
     
  6. .:VinAY:.

    .:VinAY:. New Member

    Copied from another topic:- http://www.indianguitartabs.com/showthread.php?t=7860


    awaz_bass's version

    F#m D E
    Jab kisi ki taraf dil jhukne lage
    F#m D E
    baat aakar zuban par runkne lage
    BM E A
    **aankhon aankhon mein, ekraar hone lage
    BM D C#
    bol do gar tumhe pyar hone lage...
    E A E F#m
    hone lage pyar hone lage -- e- a --- a --a a


    [antara - starts in A]
    A D A
    Chahne jab lage dil kisi ki khushi
    A D E
    dillagi yeh nahi ... ye hai.. dil ki lageeeeeeee
    A D A
    andhiyon ko chupaney se kya faayada
    A D E BM
    pyar dil mein chupaney se kya faayadaaaa


    [**jaan se pyaara....same chords as aankhon aakhon ]
     
  7. revoltage

    revoltage New Member

    thanks a lot :)
     
  8. arun.s

    arun.s New Member

    Nice tabs! :)
     
  9. Kapsi..

    Kapsi.. New Member

    intro :
    ma 1st postin
    - kapil
    ---------------|---------------|--------------|
    ---------------|---------------|--------1-----|
    ---0---2-3-2--|-----0-2-3-2---|----0---3-2-|
    ---------------|---------------|--------------|
    ---------------|---------------|--------------|
     

Share This Page