Pyaar ko ho jane do- Dushman (intro tabs + chords)

Discussion in 'Hindi Guitar Tabs - Submit or Request' started by JUDAS_666, Mar 7, 2010.

  1. JUDAS_666

    JUDAS_666 New Member

    E-11-11-11-11-10-11---8-10-11-8h10p8
    B-11----------------------8----------------8
    G-12----------------------8-----------------

    E 10-10-10-10-8-10---6-8-10-6h8p6----
    B 11---------------------6-------------6------
    G 10---------------------7------------------

    E-----6------------------------------
    B-8-9--8-9-6-8------6-8-------6-8------- (repat this part once)
    G---------------7--8------7-8-----------
    D-----------------------------------
    A-----------------------------------

    D#
    Pyar ko ho jaane do
    D#
    Pyaar mein kho jaane do
    CM..........G.........
    aitbaaaaaaar Kiska hai
    A#..........
    intejaar kiska hai
    D#........................A#...........
    Abhi na hua to fir kabhi nahi kabhi nahi

    (same chords for Lata's vocal part)

    verse1
    D#
    Pyaar ke bich mein
    Cm
    hum nahi ayenge
    D#
    jus taraf le chala dil
    Cm
    chale jayenge
    G#
    chain sa aagaya,
    A#
    yu laga dil gaya
    D#.........................A#..............
    abhi na gaya to fir khabhi nahi kabhi nahi

    (same for other verses)


    Suggestions / corrections plz


    Ps: to the admins/mods/ anyone who may help
    well this nick of mine was registered almost 6 yrs back when i was influenced by a sort of anti-christ / atheist wave but now i'm a devout religious person
    and i feel so wrong to continue with this. Any suggestions how may i change my nickname?
     
  2. fahim2003

    fahim2003 New Member

    Awesome match with the song! perfect!
     

Share This Page