Pukaar - Call tab

Discussion in 'Pakistani Guitar Tabs - Submit or Request' started by BIG_EVIL, Jul 6, 2005.

  1. BIG_EVIL

    BIG_EVIL Guitaring Machine

    hi ppl
    im back
    with a new tab
    hope ull like it

    they are my own tabs so
    COPY PASTING IS STRICTLY PHROBITED :mad:

    :rule: :rule: :rule:



    Im not sure about the lyrics but..who cares…..we just care abt the tabs


    PUKAAR – CALL
    COMPLETE

    INTRO=

    E-------------------------------------------------------------------------
    B------------------------------------------------------------------------
    G------------------------------------------------------------------------
    D—10-10-10-10-10-------5-5-5-5-5----7-7-7-7-7—3-3-3-3-3---
    A---10-10-10-10-10-------5-5-5-5-5----7-7-7-7-7---3-3-3-3-3---
    E----8—8—8—8—8----- ---3-3-3-3-3----5-5-5-5-5---1-1-1-1-1---



    E----------------------------------------------
    B---------------------------------------------
    G----------------------------------------------
    D—10-10-10-10-10-------5-5-5-5-5----7
    A---10-10-10-10-10-------5-5-5-5-5----7-
    E----8—8—8—8—8----- ---3-3-3-3-3----5


    End Intro-------------------



    Verse=1……..[listen to the song for the timing]


    E-------------------
    B-------------------
    G-------------------
    D—10-------10-10
    A---10-------10-10-
    E----8—------8—8

    In raaston pay chal kay







    E-------------------
    B-------------------
    G-------------------
    D—--5------5--5
    A----5------5--5-
    E----3—---3--3-

    In avazon per chal kay



    E-------------------
    B-------------------
    G-------------------
    D--7-----7--7----
    A--7-----7--7-----
    E--5--—5—5-----

    Kabhi milay



    E-------------------
    B-------------------
    G-------------------
    D—3-----3--3
    A---3-----3—3
    E---1-----1---1

    Kabhi girayy



    E-------------------
    B-------------------
    G-------------------
    D—10-------10-10
    A---10-------10-10-
    E----8—------8—8

    Khabon kay blah blah blah blah




    E-------------------
    B-------------------
    G-------------------
    D—-5------5--5
    A----5------5--5-
    E----3—---3--3-

    Janaton ke aasman uter kay



    E-------------------
    B-------------------
    G-------------------
    D--7-----7--7----
    A--7-----7--7-----
    E--5--—5—5-----

    Kabhi milay



    E-------------------
    B-------------------
    G-------------------
    D—3------3--3----
    A---3-----3—3----
    E---1-----1---1-----

    Kabhi girayy



    Yahayyyyyyyyyy

    CHORUS

    E----------------------------
    B-----------------------------
    G--------------------------
    D—-9--9------5----—3----
    A----9--9------5-------3-
    E----7—7—---3-------1-

    Yehi pukaar hay



    E----------------------------
    B-----------------------------
    G--------------------------
    D—-9--9------5----—3----
    A----9--9------5-------3-
    E----7—7—---3-------1-


    Yehi aag hay

    E----------------------------
    B-----------------------------
    G--------------------------
    D—-9--9------5----—3----
    A----9--9------5-------3-
    E----7—7—---3-------1-


    Yehi pukaar hay


    E----------------------------
    B-----------------------------
    G--------------------------
    D—-9--9------5----—3----
    A----9--9------5-------3-
    E----7—7—---3-------1-


    Yehi aag hay



    E-------------------------------------------------------------------------
    B------------------------------------------------------------------------
    G------------------------------------------------------------------------
    D—10-10-10-10-10-------5-5-5-5-5----7-7-7-7-7—-3-3-3-3-3---
    A---10-10-10-10-10-------5-5-5-5-5----7-7-7-7-7---3-3-3-3-3---
    E----8—8—8—8—8----- ---3-3-3-3-3----5-5-5-5-5---1-1-1-1-1---

    Choro in zangeeron ko..in..blah blah…choro is saathi ho…is saathi kooooo







    JUST LIKE VERSE = 1, u can PLAY VERSE=2

    Then play the chorus
    Then the choro in zangeeron ko part

    And now the acoustic riff


    Play it roughly ;)

    E--------0-------------------0------------------------------------------
    B----------3-------------------3--------------------------------------
    G--2-2-------2-----------2-------2-------------------------------------
    D--0-------------------3------------3--------------------------------
    A-----------------------0---------------------------------------------
    E--------------------------------------------------------------------------



    E------------3-------------------------------------------------------------
    B--------------3-------------------5---------------7--------------------
    G-------2---------2---------------4---------------6--------------------------
    D----x---------------------------------------------------------------------
    A----3----------------------x--x----------x---x------------------------------
    E---------------------------5--5----------7---7----------------------------------


    Repeat it until the singing part comes


    Jaltay rahain gay
    JALTAY RAHAIN GAY!!!!!!!!!!!!





    E-----------------------
    B----------------------
    G------------------------
    D—10-10-10-10-10
    A---10-10-10-10-10-
    E----8---8--8---8--8-
    Jaltay rahain gay…….repeat until he screams!!!!

    Now comes the PALM MUTING part

    Palm muting

    E------------------------------------------
    B----------------------------------------
    G------------------------------------------
    D--5--7--7---5--7--7---------3---5------
    A--5--7--7---5--7--7---------3---5-----
    E--5--5--5---5--5--5---------1---3-----


    Repeat ^ ^ ^..until he screams


    now Without palm muting

    E------------------------------------------
    B----------------------------------------
    G------------------------------------------
    D--5--7--7---5--7--7---------3---5------
    A--5--7--7---5--7--7---------3---5-----
    E--5--5--5---5--5--5---------1---3-----

    Yayyyyyyyyyyyyyyyyyyyyyyyyyyyyyyyyyyyyyy



    E------------------------------------------
    B----------------------------------------
    G------------------------------------------
    D----7--7-----7--7-----7--7-----------
    A----7--7-----7--7-----7--7-----------
    E----5--5-----5--5-----5--5------------

    Yehi pukaar hay

    E------------------------------------------
    B----------------------------------------
    G------------------------------------------
    D----7--7-----7--7-----7--7-----------
    A----7--7-----7--7-----7--7-----------
    E----5--5-----5--5-----5--5------------

    Yehi aag hay

    E------------------------------------------
    B----------------------------------------
    G------------------------------------------
    D----7--7-----7--7-----7--7-----------
    A----7--7-----7--7-----7--7-----------
    E----5--5-----5--5-----5--5------------

    Yehi pukaar hay


    E------------------------------------------
    B----------------------------------------
    G------------------------------------------
    D----7--7-----7--7-----7--7-----------
    A----7--7-----7--7-----7--7-----------
    E----5--5-----5--5-----5--5------------

    Yehi aag hay
     
  2. aysh

    aysh -|h3 ori9in4| (ui!aris-|-

    nice work dude .. whr hav u been ?
     
  3. faiqgiant

    faiqgiant .: Innocent :.

    cool... u rock.
     
  4. BIG_EVIL

    BIG_EVIL Guitaring Machine

    @faiq and nemo
    THANX

    and ive been busy these days
    so i cudnt use the net much
     
  5. rizaaj

    rizaaj Forum Leader

    nice work biggy... sound great...

    busy eh?? where??
     
  6. Quadrophenia

    Quadrophenia New Member

    with who :p
     
  7. BIG_EVIL

    BIG_EVIL Guitaring Machine

    yaar....kya samagh rahay ho tum log :p:

    i was busy with someone ;)
     
  8. JAZZ

    JAZZ New Member

    nice work dude.....
     
  9. BIG_EVIL

    BIG_EVIL Guitaring Machine

    THankS..............
     
  10. xulfi

    xulfi New Member

    good job man u make ma proud........
     
  11. BIG_EVIL

    BIG_EVIL Guitaring Machine

    r u the "GUY" here???
    grow up xulfi
    no prideness here dude
     
  12. Orange Guitar

    Orange Guitar IGT's ALLROUNDER

    nice calculations man....i will try it...its my first post after 2 weeks...nice try...i will let u know after playing these chords!
     
  13. nadish

    nadish Active Member

    fantastic work big Evil.... I was looking for these tabs for a long time...
    Thanx dude
     
  14. rizaaj

    rizaaj Forum Leader

    oye nadish dude... where were you.. long time no see...

    @biggy.. good work again dude..
     
  15. BIG_EVIL

    BIG_EVIL Guitaring Machine

    thanx EveryOne!!!!!!!!!!!!!!!!!!!!!!!!!!!!!!
     
  16. Famio

    Famio New Member

    hey that fast muted part, try this :

    1st chord : 555xxx
    2nd chord: 577xxx
    3rd chord : 5577xx



    its like this, one upstroke and downstroke on first chord, one upstroke and downstroke on second chord and then one downstroke on third chord. the third has to be played immediately after the second. and then one downstroke on each 133 and 355 chords. (everything muted)

    it really sounds like the real thing if you play it right
     
  17. qizilbash

    qizilbash New Member

    cool keep up the good work
     
  18. BIG_EVIL

    BIG_EVIL Guitaring Machine

    @famio
    gud work !

    @qizil
    thanx
     

Share This Page