Poovukellam Guitar Tabs- Uyirodu Uyiraga

Discussion in 'Tamil Guitar Tabs - Submit or Request' started by Gaya3thri, Dec 22, 2016.

  1. Gaya3thri

    Gaya3thri New Member

    Poovukellaam Siragu Mulaithathu Enthan Thottathil
    E------------------------------------------------
    B---7-5-7-7/8-5-7-5-------------5---5-
    G-7------------------------7-7-7-------7----
    D-----------------------------------7-7--------

    Vinmeen Elaam Nilavaai Ponathu Enthan Vaanathil
    E--------------------------------------------------
    B---7-5-7-7/8-5-7-5--------------5-------
    G-7------------------------7-7-7--------7-7-
    D-----------------------------------7-7---------

    Muppathu Naalum Mugurthamaanathu Enthan Maathathil
    E-5-5-5-5-5/10-7-7---------------7-5-5---
    B---------------------------8-8-8-5-5---------

    Mullil Kooda Then Thuli Kasinthathu Enthan Raagathil
    E-5-5-5-5-5/10-7-7---------------7-7-5---
    B---------------------------8-8-8-5-5------------

    Ithu Eppadi Eppadi Nyaayam
    E-7-7-10-10-7-10-10-12-12/14-10------

    Elaam Kaathal Seitha Maayam
    E-10-10--10-10-10-12-12/13-10--------

    Nilavai Pidithu Eriyavum Mudiyum
    E-5-5-5-5-5-5--7-5-7-5-7-5-5---------

    Neela Kadalai Ku***avum Mudiyum
    E-5-5-5-5-5-5-8-7-8-7-8-7-5----------

    Kaatrin Thisayai Maatravum Mudiyum
    E-5-5-5-5-5-5----5-5------------------
    B-------------------8------8-8-7----------

    Kambanai Muzhukka Chollavum Mudiyum
    E----------------5------------------------
    B-5-5-5-8-8---7-7-7-7-7-7------

    I Love You Love You Sollathaane
    E-10-10-7-10-10-12-12/14-12-10-10-10-

    Aiyo Enaal Mudiyavillai
    E-10-10-8-10-8-6-6-8-6-5-5-5---------
     

Share This Page