Poocho na poocho na : Jab we met

Discussion in 'Hindi Guitar Tabs - Submit or Request' started by VisOrchestraGrp, Oct 29, 2007.

  1. VisOrchestraGrp

    VisOrchestraGrp New Member

    Movie: Jab we met

    Haan arre koi to bata ye jeene ka maza kyun aane laga
    G |--5-5-6-5-3-3-5--5-6-5-3-3-5--5-3-5-----------------
    D |---------------------------------------6-5------------

    Ye hawaon mein hai kya jo thoda sa nasha kyun chhaane laga
    SAME AS LINE 1

    Poocho na poocho kya hua hai teri baahon mein aakar
    G |--5-5-5-3-3-3-3--------------------5-3--------------------
    D |------------------6--6-5-6-5-3-----------6-5--------------
    A |---------------------------------4-------------------------

    Poocho na poocho mujhe kya milega teri baahon mein aakar
    G |--5-5-5-3-3-3-3--------------------5-3----------------------
    D |------------------6--6-5-6-5-3-----------6-5-5-6-5-6-5-3---
    A |---------------------------------4---------------------------

    Ye ishq haaye baithe bithaaye jannat dikhaaye haan
    D |--3-3-5-6-8-6-5--3-3-5-6-8-6-5--3-3-5-6-3-5-----3---------
    A |------------------------------------------------6------------

    O rama
    G |--6-5-3-------6-5-3------------------------
    D |---------6-5----------6-5------------------

    STANZA :

    Tode maine saare hi bandhan zamane tere
    G |----------------5---------------------------
    D |--5-6-5-6-3-5-----6-6-5-3-2-3-5-----------

    Todungi na ye vaada
    D |--6-5-6-5-5-3-2-3-5-3-5-3-----------------

    Aadha hissa mere to dil ki kahani ka tu
    SAME AS STANZA LINE 1

    Piya main baaki aadha
    SAME AS STANZA LINE 2

    Dekho na dekho mujhe kya hua hai teri baahon mein aakar
    G |-----------------------------------5-3-----------------------
    D |--6-6-6-8-8-8-8-6-6-5-6-5-3------------6-5-----------------
    A |-------------------------------4-----------------------------

    Poocho na poocho mujhe kya hua hai teri baahon mein aakar
    G |--5-5-5-3-3-3-3--------------------5-3----------------------
    D |------------------6--6-5-6-5-3-----------6-5-5-6-5-6-5-3---
    A |---------------------------------4---------------------------
     
  2. Swami

    Swami New Member

    Please post this song again as some of the lines of this song creats confusion
    Like -

    Haan arre koi to bata ye jeene ka maza kyun aane laga
    G |--5-5-6-5-3-3-5--5-6-5-3-3-5--5-3-5-----------------
    D |---------------------------------------6-5------------

    Here which note to play first 6 after G 3 or first play all lines of G then play
    the lines of D .
     
  3. VisOrchestraGrp

    VisOrchestraGrp New Member

    Ok I am posting it again .

    Movie: Jab we met

    Haan arre koi to bata ye jeene ka maza kyun aane laga
    G |--5-5-6-5-3-3-5--5-6-5-3-3-5--5-3-5-----------------
    D |-------------------------------------------6-5------------



    Ye hawaon mein hai kya jo thoda sa nasha kyun chhaane laga
    G |--5-5-6-5-3-3-5--5-6-5-3-3-5--5-3-5-----------------
    D |-------------------------------------------6-5------------



    Poocho na poocho kya hua hai teri baahon mein aakar
    G |--5-5-5-3-3-3-3------------------------5-3--------------------
    D |--------------------6--6-5-6-5-3--------------6-5--------------
    A |-------------------------------------4--------------------------



    Poocho na poocho mujhe kya milega teri baahon mein aakar
    G |--5-5-5-3-3-3-3------------------------5-3--------------------
    D |--------------------6--6-5-6-5-3--------------6-5--------------
    A |-------------------------------------4--------------------------


    Ye ishq haaye baithe bithaaye jannat dikhaaye haan
    D |--3-3-5-6-8-6-5--3-3-5-6-8-6-5--3-3-5-6-3-5-------3---------
    A |----------------------------------------------------6--------------

    O rama
    G |--6-5-3-----------6-5-3-------------------------------------
    D |-----------6-5-------------6-5----------------------------------

    STANZA :

    Tode maine saare hi bandhan zamane tere
    G |------------------5--------------------------------------------
    D |--5-6-5-6-3-5--------6-6-5-3-2-3-5------------------------------


    Todungi na ye vaada
    D |--6-5-6-5-5-3-2-3-5-3-5-3-------------------------------------


    Aadha hissa mere to dil ki kahani ka tu
    SAME AS STANZA LINE 1

    Piya main baaki aadha
    SAME AS STANZA LINE 2

    Dekho na dekho mujhe kya hua hai teri baahon mein aakar
    G |-----------------------------------------5-3-----------------------
    D |--6-6-6-8-8-8-8-6-6-5-6-5-3-------------------6-5-----------------
    A |-----------------------------------4-------------------------------

    Poocho na poocho mujhe kya hua hai teri baahon mein aakar
    G |--5-5-5-3-3-3-3------------------------5-3--------------------
    D |--------------------6--6-5-6-5-3--------------6-5--------------
    A |-------------------------------------4--------------------------
     
  4. ernav

    ernav Member

    Hello Visorchestragrp....i Have Posted New Thread----- Wanted Song Tabs....

    Please Post The Tabs Of All Song...i Have Posted Lyrics Also...bye..:)
     

Share This Page