Plz post chords/tabs for Drive by Incubus.

Discussion in 'English Guitar Tabs - Submit or Request' started by acebuddy129, Jun 7, 2005.

  1. acebuddy129

    acebuddy129 S¡nE® Sá¡nT

    Can nebody post me the chords or tabs for this awesome track DRIVE by INCUBUS. am jus toooo busy(a bit lazzy) to tab it myself. Plzzzz help me. Thanks in advance
     
  2. annand

    annand the pessimist

    a little advice: you absolutely DON'T need to tab ANY "english" song. there are just too many sites that contains those tabs. don't waste your time reinventing the wheel.

    two good place to check for tabs: ultimate-guitar.com and mxtabs.net
    here is the link: http://www.mxtabs.net/tabs.php?path=Guitar,i,612,Incubus,Drive+Complete,199190




    Mxtabs [http://www.mxtabs.net]
    Incubus - Drive
    Tabbed by Wes Chennault

    q – quarter note
    e – eighth note
    s – sixteenth note
    v – upstroke
    / - slide up
    \ - slide down
    p – pull-off
    h – hammer on
    ~ - let ring

    Intro/Verse/Chorus
    Em Em9 Cmaj7 A7
    e|----------0-----------------------0--------------|
    B|------8--8-------7-------------55--------------|
    G|------0--00-----7----------4-44-------0---0-|
    D|---9-9--99--5--5----------5-55----2--------|
    A|---------------7--7--5--3----------0----------|
    E|-0----------------------------------------------|

    Pre-Chorus (1 bar each, strum to your liking)
    Cmaj7 A7 Cadd9 A7
    e|-0-| |-0-| |-0-| |-0-|
    B|-5-| |-2-| |-3-| |-2-|
    G|-4-| |-0-| |-0-| |-0-|
    D|-5-| |-2-| |-2-| |-2-|
    A|-3-| |-0-| |-3-| |-0-|
    E|--- | |---| | --- | |---|

    Solo (starts at the 4th time through chorus at A7; very easy, listen to song for rhythm)
    (A7)
    e q
    e|-0-0-|-0-3-7-5-3-5-------------------------------3-5-7-7-5-10-7-3-|
    B|-----|-------------------3-3/5-5\3-3/5-5-3/5-5------------------------|
    G|-----|----------------------------------------------------------------------|
    D|-----|----------------------------------------------------------------------|
    A|-----|----------------------------------------------------------------------|
    E|-----|----------------------------------------------------------------------|


    e|-5-7--------------------5-5-3-3------------------------|
    B|-------5-3-3-3/5-5\3------------5-5-3----------------|
    G|--------------------------------------------4-2-2/4-4~-|
    D|-----------------------------------------------------------|
    A|-----------------------------------------------------------|
    E|-----------------------------------------------------------|

    Ending
    e|----------0-0-------0~-|
    B|------5---5-5-\----2---|
    G|-4---4---4-4------0---|
    D|-5---5---5-5-\----2---|
    A|-3---3---3-3------0---|
    E|-------------------------|
    1 2 3 4

    I/V/C x8
    Pre-Chorus x2
    I/V/C x8
    Pre-Chorus x2
    I/V/C x4
    Solo x1
    Pre-Chorus x1
    I/V/C x8
    Ending x1
     
  3. acebuddy129

    acebuddy129 S¡nE® Sá¡nT

    Thanks and WIll keep that lil advice in my mind. rock on!!
     

Share This Page