Plz! I Need Dhoom Tabs

Discussion in 'Hindi Guitar Tabs - Submit or Request' started by Zaya, Sep 20, 2004.

  1. Zaya

    Zaya New Member

    Whoever has seen dhoom would know that is one of the best desi movies ever created for guys! i just started playing guitar a couple weeks ago. i got the chords down. i like to play desi songs on it alot and would appreciate it if sum1 could supply me with the tabs for DHOOM! TANX MUCHO! :cool:
     
  2. lord_neo

    lord_neo Guest

    Hi Zaya, welcome to IGT. Please use the prefix "REQ" followed by the song name and the move name while requesting for tablature.
     
  3. Mudit Malhotra

    Mudit Malhotra BLOODY FINGERED

    tabz

    dhooom macha le
    i was just able to tab a bit :(

    --------------9--7--9--7--9-----7---9---7--
    -----------7-----------------10-------------10

    i hope these are fine coz i just made them without GUITAR i mean jus in mah mind
    gimmi responce plz
    :rockon:
     
  4. Subhro

    Subhro Argentina lost :"(

    its 4 u !

    Hi Zaya..

    this is intro tab for Dhoom..
    hav fun playin it..

    E |-----------------------------------------------------|
    B |-----------------------------------------------------|
    G |-----------------------------------------------------|
    D |-------9--7--9--7(h)9------7(h)9--7-----------------|
    A |----7------------------10-------------10(p)7--------|
    E |-----------------------------------------------------|

    E |-----------------------------------------------------|
    B |-----------------------------------------------------|
    G |-----------------------------------------------------|
    D |-------9--7--9--7(h)9------7(h)9--7-----------------|
    A |----7------------------10----------------------------|
    E |-----------------------------------------------------|

    E |-----------------------------------------------------|
    B |-----------------------------------------------------|
    G |-----------------------------------------------------|
    D |-------9--7--9--7(h)9------7(h)9--7-----------------|
    A |----7------------------10-------------10(p)7--------|
    E |-----------------------------------------------------|

    E |-----------------------------------------------------|
    B |-----------------------------------------------------|
    G |-----------------------------------------------------|
    D |--------------5--------------------------------------|
    A |----5--7(h)8-----8(p)5------5--8--7--8--7-----------|
    E |-----------------------------------------------------|

    Bye tk cre..
    chill :beer: Subhro.
     
  5. rockboyteek

    rockboyteek New Member

    these tabs dont sound rite, arnt there any others???
     
  6. dr baba

    dr baba New Member

    i posted it alredy plzz check naaaa......and rate it...
    ill post it again if u want...

    e----------9---7--9----7----9----5---7----9----7----5........... rpt twice
    b-------7---------


    e--------------5------------------------ intro tabs only
    b----5---7--8-----8--7---5----8---7
     
  7. Bandbaaja

    Bandbaaja Pronounced Band Baaaa Ja

    Tabs and notes for Dhoom intro

    here are the notes:

    Dash above note means higher note
    Dash below note means lower note

    The song is in Em

    Line 1 = E B A B A B G A B A G E
    ............-............................-

    Line 2 = E B A B A B G A B A
    ............-..........................

    Line 3 = E B A B A B G A B A G E
    ............-............................-

    Line 4 = D E F G F E D F E F E
    ............ -.-.......................-


    TABS (NUMBERS IN BRACKETS ARE FINGERS):

    LINE 1

    E -----------------------------------------------------------------------
    B ------12(4)-10(2)-12(4)-10(2)-12(4)------10(2)-12(4)-10(2)------------
    G --9(1)------------------------------12(4)-------------------12(4)-9(1)-
    D -----------------------------------------------------------------------
    A -----------------------------------------------------------------------
    E -----------------------------------------------------------------------

    LINE 2

    E -----------------------------------------------------------------------
    B ------12(4)-10(2)-12(4)-10(2)-12(4)------10(2)-12(4)-10(2)-sustain----
    G --9(1)------------------------------12(4)------------------------------
    D -----------------------------------------------------------------------
    A -----------------------------------------------------------------------
    E -----------------------------------------------------------------------

    LINE 3 (SAME AS LINE 1)

    E -----------------------------------------------------------------------
    B ------12(4)-10(2)-12(4)-10(2)-12(4)------10(2)-12(4)-10(2)------------
    G --9(1)------------------------------12(4)-------------------12(4)-9(1)-
    D -----------------------------------------------------------------------
    A -----------------------------------------------------------------------
    E -----------------------------------------------------------------------

    LINE 4

    E -----------------------------------------------------------------------
    B -----------------------------------------------------------------------
    G -------9(1)-10(2)-12(4)-10(2)-9(1)------10(2)-9(1)-10(2)-9(1) sustain--
    D -12(4)------------------------------12(4)------------------------------
    A -----------------------------------------------------------------------
    E -----------------------------------------------------------------------
     
  8. Bandbaaja

    Bandbaaja Pronounced Band Baaaa Ja

    subro's notes are same, but he has tabbed it on a lower octave
    it sounds better in the higher octave
    dont get disheartened by the 9th to 12th fret position, its actually very easy
     
  9. Nirazs

    Nirazs New Member

    Dhoom Tabs

    Hai it's Niraz again after long time ! i think it's the right way to play the title song of DHOOM

    Song starts with Dm

    Intro part goes like this

    E|-----------------------------------------------|
    B|------10--8--10--8-------8--10--8------------|
    G|--7------------------10-------------10(p)7-----|
    D|------------------------------------------------|
    A|------------------------------------------------|
    E|------------------------------------------------|


    E|-----------------------------------------------|
    B|------10--8--10--8-------8--------------------|
    G|--7------------------10------------------------|
    D|------------------------------------------------|
    A|------------------------------------------------|
    E|------------------------------------------------|

    E|-----------------------------------------------|
    B|------10--8--10--8-------8--10--8------------|
    G|--7------------------10-------------10(p)7-----|
    D|------------------------------------------------|
    A|------------------------------------------------|
    E|------------------------------------------------|

    E|------------------------------------------------|
    B|-------------6----------------------------------|
    G|--5---7--8------8--7-8--7-8--------------------|
    D|------------------------------------------------|
    A|------------------------------------------------|
    E|------------------------------------------------|

    then the main part goes like this

    E|------------------------------------------------|
    B|------10-8-10-----8----------------------------|
    G|--7-----------10----10--8--7-7-7-7------------|
    D|------------------------------------------------|
    A|------------------------------------------------|
    E|------------------------------------------------|
    dhoom maccha le dhoom maccha le dhoom ......... :rock:

    have a great time guyz :rockon:
     
  10. Subhro

    Subhro Argentina lost :"(

    the tabs r perfect @ rockboyteek.. :)
    might be ur guitar aint tuned properly ..
    if u wanna play it in a higher octave make the required transpositions.. basic thing remains the same :)

    bye tk cre
    chill :beer: Subhro
     
  11. Bandbaaja

    Bandbaaja Pronounced Band Baaaa Ja

    THE SONG IS IN Em FOR SURE
    not Dm
    and my tabs are in the right OCTAVE
     
  12. Nirazs

    Nirazs New Member

    might be dude if u r sure then it might be so u can shift the notes from Dm to Em and play the song but the note pattern is right !
     

Share This Page