1. Muz guitarist

    Muz guitarist New Member

    Can any one please send me the leadind part of Dil Haray y JAL.......
    PLEASE help me out plzzzzzzzzzzzzzzzzzzzzzzzzz.................
     
  2. jayanth

    jayanth <.: : Call Quits : :.>

    YOu have to use REQ in your Thread title if you want help easily. And tell us what you want in the Title itself..
     
  3. invincible2k

    invincible2k New Member

    Note : The song can be played in the "Standard tuning", But i preffer that you tune Your guitar
    "1 step down" and use a "Capo" on the second fret for easier play.



    " INTRO "

    e|-------3---2-----5\3----------3p2---2------7-----------|
    b|-----3-------3-------3------3-----3---3----7-----------|Guitar 1
    g|---0-----0-----0----------0-------------0--0-----------|
    d|-------------------------------------------0-----------|
    a|-------------------------------------------------------|
    e|-3---------------------3-------------------------------|

    e|-------------------------15--15------------------------|Guitar 2
    b|-----------------------15--15--------------------------|



    e|-----3---2-----5\3-------3\2---2-----3-3---------------|
    b|-----------3-------3---------3---3---------------------|Guitar 1
    g|---0---0-----0---------0-----------0-------------------|
    d|-------------------------------------------------------|
    a|-3-------------------3---------------------------------|
    e|-------------------------------------------------------|

    e|--15--15---------------15--15-------17-17--------------|Guitar 2
    b|15--15---------------15--15----------------------------|



    e|-------3\2---2-----5\3----------3\2---2-------7--------|
    b|-----3-----3---3-------3------3-----3---3-----7--------|Guitar 1
    g|---0-------------0----------0-------------0---0--------|
    d|----------------------------------------------0--------|
    a|-------------------------------------------------------|
    e|-3------------------------3----------------------------|

    e|------7--------7h8-7p5----------7---------7------------|Guiatr 2
    b|-------------------------------------------------------|



    e|-------3\2---2-----5\3----------3\2---2-----3/7--------|
    b|-----------3---3-------3------------3---3--------------|Guiatr 1
    g|---0-------------0----------0-------------0------------|
    d|-------------------------------------------------------|
    a|-3------------------------3----------------------------|
    e|-------------------------------------------------------|

    e|--------7-------7h8-7p5----------7-10--7---------------|Guitar 2
    b|-------------------------------------10----------------|



    e|-----7---5-----5h7-7-----7/8---5-5-7/8---5-------------|
    b|---7---7---7-----------7-----7---------7---7\3---------|
    g|-------------------------------------------------------|
    d|-------------------------------------------------------|
    a|-7-----------7-------7---------------------------------|
    e|-------------------------------------------------------|


    e|-----0---2---3-2------------3\2---2-----3------3-------|
    b|---3---3---3-----3---3----------3---3------3---3-------|
    g|--------------------------0-----------0--------0-------|
    d|-----------------------------------------------0-------|
    a|-3-----------------3----3----------------------2-------|
    e|-----------------------------------------------3-------|
     
  4. jayanth

    jayanth <.: : Call Quits : :.>

    Thanks Dude..
     

Share This Page