Pink Floyd: wish you were here

Discussion in 'English Guitar Tabs - Submit or Request' started by J.J, Sep 16, 2005.

  1. J.J

    J.J The Guitar God

    WISH YOU WERE HERE Pink Floyd
    (Waters, Gilmour)

    INTRO: (Rhythm figure 1)
    Em7 G
    e---------------------3--3-3------3----------------3----3----3-----------
    B-----------------3-3-3--3-3----3-3--------------3-3----3----3-----------
    G-----------------0-0-0--0-0-0--0---0------------0-0-0--0----0-----------
    D--------0----2--------------2----------2----0-------0--0--------------0-
    A----0h2-----------------------------------------------------------0h2---
    E----------------------------------------------------3--3-------3--------

    Em7 G
    e-----------3---3-3-3-3----------------------3-----3-----3---------------
    B-------3---3---3-3-3-3--------------------3-3-----3-----3---------------
    G-------0---0---0-0-0-0------0-------------0-0-0---0-----0---------------
    D---2--------------------2--------2----0-------0---------------------0---
    A---------------------------------------------------------------0h2------
    E----------------------------------------------3-------------3-----------

    Em7 A7sus4
    e-------3-3-3---3-3-3-3-------------------------3-3-3---------3-3---------
    B-------3-3-3---3-3-3-3-------------------------3-3-3---------3-3---------
    G-------0-0-0---0-0-0-0-------------------------0-0-0---------------------
    D---2--------------------2---0--------------2-------2------------------0--
    A--------------------------------2------0-----------0--------------0h2----
    E-------------------------------------------------------------------------

    Em7 A7sus4
    e-------3-3-3---3-3-3-3-----------------------3-----------3---------------
    B-------3-3-3---3-3-3-3-----------------------3-----------3------3------3-
    G-------0-0-0---0-0-0-0-----------------------0------------------0----0-0-
    D---2-------------------2---0-------------2-2----------------2-0-0----0-0-
    A-------------------------------2-----0-------------0------------0h2------
    E-------------------------------------------------------------------------

    G (end Rhythm figure 1)
    e----3-------3-------3-----------3-3--3-----------3-3-3-----------------
    B----3---3-3-3-------3-----------3-3--3-----------3-3-3-----------------
    G----0---0-0-0-------0-----------0-0--0-----------0-0-0-----------------
    D----0---0---0-------0-------0---0-0--0-------0---0-0-0-------------0---
    A----2---2-----------2-----------2-2--2-----------2-2----------0h2------
    E----3-----------3---3---3---------3--3---3---------3------3------------

    SOLO:(Guitar 2 with first 9 bars of Rhythm Figure 1)
    Em7 G
    e---------------------------------------------------------------
    B-----------3------5-----3--------------------------------------
    G------2/4------------4---------4p2p0---------------------------
    D----------------------------------------0----------0--0--------
    A---------------------------------------------1/2---------------
    E---------------------------------------------------------------

    Em7 G
    e----3/5--3/5----------------------------------------------------
    B----3/5--3/5--3/5--5/3-p0--3/5--4/2-p0--------------------------
    G----------------2/4--4/2-p0--2/4--4/2-p0-----4---------------x\---
    D-------------------------------------------------5---------------x\---
    A----------------------------------------------------------------
    E----------------------------------------------------------------

    Em7 A7sus4
    e--------------------------------------------------------------------
    B----------3-----5----5b(7)r5p3-----3---------------3--5-------------
    G-----2/4-----4------------------4-------2----4b(5)-------4b(6)--2---
    D--------------------------------------------------------------------
    A--------------------------------------------------------------------
    E--------------------------------------------------------------------

    Em7 A7sus4 G
    e------------------------------------------------------------------3-
    B----------3-----5------5b(7)-(7)r5--3--5------------------------3-3-
    G-----2/4-----4-------------------------------2----4b(6)r4--2----0-0-
    D----------------------------------------------------------------0-0-
    A--------------------------------------------------------------------
    E--------------------------------------------------------------------

    e---3--------3-----3--------3----
    B---3------3-3-----3------3-3-3--
    G---0------0-0-----0------0-0-0--
    D---0------0-0-----0------0-0-0--
    A---2------2-------2-------------
    E---3------3-------3-------------


    Strumming Pattern>DDUDDU

    VERSE:
    C D/F#
    So, so you think you can tell
    Am/E G D/F#
    Heaven from hell, Blue skies from pain. Can you tell a green field
    C Am G
    From a cold steel rail, A smile from a veil? Do you think you can tell?
    C D/F# Am/E
    Did they get you to trade, Your heroes for ghosts, Hot ashes for trees,
    G D/F# C
    Hot air for a cool breeze, Cold comfort for change? Did you exchange
    Am G
    A walk on part in the war, For a lead role in a cage?


    SOLO: (play Rhythm Figure 1 with the solo on guitar 2)
    Em7 G
    e--------------------------------/10--------/12--10----------------------
    B---/12--12--10/12--12----10/12-------12\--------------------/12--12-12\-
    G------------------------------------------------------------------------
    D------------------------------------------------------------------------
    A------------------------------------------------------------------------
    E------------------------------------------------------------------------

    Em7 G
    e------10\--------------------------------------------------
    B--/12------/12\11/12-12------12\----7----------------------
    G---------------------------------------7-------------------
    D-------------------------------------------7/9-------------
    A-----------------------------------------------------------
    E-----------------------------------------------------------

    Em7 A7sus4
    e--------10--------10-10---------------------12------------------------
    B--10/12-------/12------------15\------12/14--------14\--/14-14-14-14\-
    G---------------------------------12\----------------------------------
    D----------------------------------------------------------------------
    A----------------------------------------------------------------------
    E----------------------------------------------------------------------

    Em7 A7sus4 G
    e---------10------------------------------------12------------------/10--
    B---10/12---------12\----------12---------12/14--------14\10--------/10--
    G------------------------12/14----12/14----------------------------------
    D------------------------------------------------------------------------
    A------------------------------------------------------------------------
    E------------------------------------------------------------------------

    VERSE:
    C D/F#
    How I wish, how I wish you were here,
    Am/E G D/F#
    We're just two lost souls simming in a fish bowl, Year after year,
    C Am
    Running over the same old ground, What have we found? The same old fears,
    G
    Wish you were here.

    e---------------------3--3-3------3----------------3----3----3-----------
    B-----------------3-3-3--3-3----3-3--------------3-3----3----3-----------
    G-----------------0-0-0--0-0-0--0---0------------0-0-0--0----0-----------
    D--------0----2--------------2----------2----0-------0--0--------------0-
    A----0h2-----------------------------------------------------------0h2---
    E----------------------------------------------------3--3-------3--------

    Em7 G
    e-----------3---3-3-3-3----------------------3-----3-----3---------------
    B-------3---3---3-3-3-3--------------------3-3-----3-----3---------------
    G-------0---0---0-0-0-0------0-------------0-0-0---0-----0---------------
    D---2--------------------2--------2----0-------0---------------------0---
    A---------------------------------------------------------------0h2------
    E----------------------------------------------3-------------3-----------

    Em7 A7sus4
    e-------3-3-3---3-3-3-3-------------------------3-3-3---------3-3---------
    B-------3-3-3---3-3-3-3-------------------------3-3-3---------3-3---------
    G-------0-0-0---0-0-0-0-------------------------0-0-0---------------------
    D---2--------------------2---0--------------2-------2------------------0--
    A--------------------------------2------0-----------0--------------0h2----
    E-------------------------------------------------------------------------

    Em7 A7sus4
    e-------3-3-3---3-3-3-3-----------------------3-----------3---------------
    B-------3-3-3---3-3-3-3-----------------------3-----------3------3------3-
    G-------0-0-0---0-0-0-0-----------------------0------------------0----0-0-
    D---2-------------------2---0-------------2-2----------------2-0-0----0-0-
    A-------------------------------2-----0-------------0------------0h2------
    E-------------------------------------------------------------------------

    G (end Rhythm figure 1)
    e----3-------3-------3-----------3-3--3-----------3-3-3-----------------
    B----3---3-3-3-------3-----------3-3--3-----------3-3-3-----------------
    G----0---0-0-0-------0-----------0-0--0-----------0-0-0-----------------
    D----0---0---0-------0-------0---0-0--0-------0---0-0-0-------------0---
    A----2---2-----------2-----------2-2--2-----------2-2----------0h2------
    E----3-----------3---3---3---------3--3---3---------3------3------------
    **********************END************************
     

Share This Page