pehla nasha intro tab

Discussion in 'Hindi Guitar Tabs - Submit or Request' started by guitar_gal, May 23, 2004.

  1. guitar_gal

    guitar_gal New Member

    hi guyz! i've been searchin evrywer 4 da tabs 2 "pehla nasha" intro. i found a few posted here, but i find only da 1st few notes 2 b rite. can sumbody post me da rite tabs? thanx!! :)
     
  2. shahzad bhatti

    shahzad bhatti New Member

    hi, and will u help me

    undefinedhi i just started playing guitar this is my favorite song please send ne its tabs as u know it
     
  3. guitar_gal

    guitar_gal New Member

    as i kno it..

    i sumhow cant get da tune rite wid dese tabs. sumbody got ne oder versions??


    Intro:

    E---5--5--8--8--------8--5--3--3--8--8--------1--1--3--5----------------
    B---------------------------------------------------------------1--3----

    E------------1--------------------------1-------------------------------
    B---------3-----------3--1--------3--3-----3--------1--1--1-------------
    G------------------------------------------------------------0--2--0----

    E-----------------------------------------------------------------------
    B------------------------------1-----------------------------------1----
    G---------0--0--0--2--3--2--0-----0--2--0--0--------2--0----------------
    D---------------------------------------------------------3-------------

    E---5--3--1-----6--5--3--1--3--5--3--1----------------------------------
    B------------1----------------------------------------------------------



    Main part:

    E---1--1--1--0--1--8--1--0--1--1--1--0--1--8--1--0----------------------
    B---------------------------------------------------3--3--3--------3----

    E---0--1--3--1--3--3--3--------1--3--5--6--5--3--1--------1--1--1--0----

    E---1--8--1--0--1--1--1--0--1--8--1--0--------------------0--1--0--1----
    B---------------------------------------3--3--3--------3----------------

    E------1--3--1--------6--------5--------5--5--8--8--10--------8--3------


    E---5--10--8--------5--5--8--8--8--------10--8--6--5--3--3--3-----------

    E---1--0-----0--1--5--3--3--------5--3--1--0-----0--1--6--5--5----------
    B---------3-----------------------------------3-------------------------

    E---1--3--5--1--3----------------------------------------------------
     
  4. jaspreet162

    jaspreet162 New Member

    it will be a lot quicker and melodious if u use instead of 1st wire 1st note 2nd wire 6th note

    trust me

    Jess
     
  5. jaspreet162

    jaspreet162 New Member

    Main Part
    E-----------------8---------------8-------------5-------------
    B-----5/6-66--5-6--6-5-6-6-6-5-6--6-5-----5-6---6-6/8-------
    G---------------------------------------7-7--------------------



    Check This Out

    Jess
    ps if u like playing it i can send the whole tab with the intro and all the beauty of the songs is u can use chords in the song very easily
     
  6. guitar_gal

    guitar_gal New Member

    hey! thanx 4 dat jess (if i can call ya dat :) ).. il try playin it.. n let u kno if i like it. but u can of coz post me da intro n da chords 2. dat wud b juz gr8!! thanx agn!! :beer:
     
  7. DesiPride143

    DesiPride143 BEHAVE!

    hey jesse man that'll be great if you send the whole song with the intro thanx bro
     
  8. jaspreet162

    jaspreet162 New Member

    Here goes

    Intro

    E –5-8-8—8-5-----8-8- 5-------- 5-------------------------------------------
    B--------------8-8-----6- - 6-6-8-----------------------6---------------
    G----------------------5------------7---7s10—7p5—7-7— 7-555-0/2-0


    E--------------------------------------------------------------------------------
    B--------------------------------------------------------------------------------
    G--0-0-2-3-2-0-5-0-2-0-0-2-p-0-------------------------------------------
    D-------------------------------------3-3---------------------------------------

    E---5-3-----6-5-3---3-5-3h5-1--1-------------------------------------------
    B-------6-3--------6------------1-------------------------------------------
    G-5-----------------------------2------------------------------------------
    F CHORD

    The song
    F Dm
    Chahe tum kuch na kaho

    F Dm C F
    Meine sun liya

    F C
    Ke saathi pyar ka

    F
    Meine chun liya

    C C
    Chun liya meine sun liya

    I have already posted the interlude look guys I am new at writing tabs, rely on ear and correct if u are not able to under stand,I think this is exact try this and then we go on to the stanza

    Ur buddy
    Jess
     
  9. guitar_gal

    guitar_gal New Member

    thanx!!

    hey jess, thanx a ton!!! n dis is 4 evrybody.. cud y'all use da font 'courier new' 4 postin tabs? da tab no.s overlap in da default font. its hard 2 follow. evrybody, :rockon:
     
  10. guitar_gal

    guitar_gal New Member


    hey jess, i made slight alterations 2 yer version. try dis out. i like dis 1 better.. watcha guyz think? :think:

    Main Part
    E------------------8------------------8-------------------5------------------5------
    B-----6-6-6---5-6----6-5-6-6-6---5-6---6-5---------5-5-6---6-6-8-8-8----6-8---8-6-5
    G-------------------------------------------7-7-7----------------------5------------
     
  11. guitar_gal

    guitar_gal New Member


    n herez anoder tiny change dat i thot wud b nice.. in da last part of da intro. changin only 1 note. me thinks dis is da rite note 2 b hit.


    E----5-3-----6-5-3---3-5-3h5-1--1-------------------------------------------
    B--------6---------6-------------1-------------------------------------------
    G--5-------5---------------------2------------------------------------------
     
  12. DesiPride143

    DesiPride143 BEHAVE!

    nice!!!

    THANX YA'ALL
     
  13. k_vikram

    k_vikram New Member

    Try This

    Hi Guys

    Here's a different version but the good part is that you can sing along with this one as all the notes fall on chords. I'll post the intro first, then if you like it then I'll post the entire song.

    Intro
    ---C---------------------------------------C----------------Am--------------------------------------------C---------------------------
    E---0--0--3--3---1-0-------3--3------------0------------------------------------------------------------------0---------1-0------0
    B---------------------3--3-----------1-1-3---------1------------1-----------------------------------------------3--1--------3-1-3--3--1-1
    G------------------------------------------------------2-0--2-2---2--0-0-0-----------------0--------------------------2------------------
    D--------------------------------------------------------------------------2-0--0-0-2-3-2-0--0--2-0-0-2-0---------------------------------
    A---------------------------------------------------------------------------------------------------------3--3----------------------------

    chords are on the first line. Strum the chord and try to finish the corrosponding sequence before the humming stops.
     
  14. Zion

    Zion *** Santana Ka Baap ***

    wow nice one.. keep this up...
     
  15. guitar_gal

    guitar_gal New Member

    hey vikram! i think i like jess' tabs better, wid my alterations. on yer version, da 1st few notes r 2 low, i feel.
     
  16. mark b

    mark b New Member

    What am I singing?

    Ladies & Gentlemen,

    I need your help.

    Could someone please post or email me the Lyrics to "Pehla Nasha" and "Maahi Ve" in english.

    I'll say that again: in english.

    I love playing these songs in my setlist and people here (in Sydney) always ask me what the hell I'm singing, I myself would love to know what the hell I'm singing.

    So any translations would be fantastic.

    Thankyou.
    MB
     
  17. six strings

    six strings New Member

    hi guys here's my version of the song.try n see if u like it.waiting for ur response.

    Pehla Nasha

    CHords Used
    G - 320033
    C - 332010
    Am - X02210
    D - XX0232
    Cadd9 - 032030
    Bb - 113331


    G . C //* single strums *//
    Chahe tum kuch na kaho
    Am . .D
    Maine sun liya
    G . D
    Ki saathi pyaar ka
    Am . C D
    Mujhe chun liya...chun liya

    D //* start strumming slowly on D *//
    Maine sun liya


    //* FILL IN **//

    G G G G G G C C C D D (* 2) [ HEAR THE SONG FOR EXACT DURATION FOR EACH CHORD;G,C,D ]


    G Cadd9
    Pehla nasha pehla khumar
    G D
    naya pyaar hai naya intezaar
    C G
    kar loon main kya apna haal
    C D
    ae dil-e bekarar
    C G
    mere dil-e bekarar
    D
    tu hi bata....
    G D
    Pehla nasha pehla khumar


    //* FILL IN *//

    C C D D [ Dont get intimidated,they r really easy,jes hear the song n u wil get the
    C C D D flow for chords ]
    G G C C Am Am... D D
    G D //* end on *//


    G Am C D
    udhta hi firoon in hawaon mein kahin
    G Am C D
    Ya main jhool jaun in ghataon mein kahin
    Bb D
    Ek kar doon aasman aur zameen
    Bb D C
    kaho yaro kya karun kya nahi

    D C G //* END ON *// [ all three are single strums ]

    G Cadd9
    Pehla nasha pehla khumar
    G D
    naya pyaar hai naya intezaar...... [ repeat the whole sequence ]
     
  18. victor_slash

    victor_slash New Member

    good one

    i tried them ...six strings ...good stuff !!

    raj has also played this song, with similar (i guess by the sound of it) chords
    and posted it on IGT:

    http://indianguitartabs.com/showthread.php?t=8105

    check his whistling part out ... its good !

    i like the tabs too ...been waitin for him since long now

    n e ways ...
    way to go six strings ... :rock:
     

Share This Page