Papihara from Guddi Tabs

Discussion in 'Hindi Guitar Tabs - Submit or Request' started by light_of_erindi, May 21, 2005.

  1. light_of_erindi

    light_of_erindi New Member

    This is a semi-classical song from the film 'Guddi' which i like very much....It has a very nice progression as do a lot of classical songs...so I have tried to tab the vocal melody here....I ain't no classical singer so please if u r one urself Or feel something's missing...feel free to comment.

    This is what i know about the classical part... :)

    Raaga is Vrindavana Saranga

    aaroha is sa re ma pa ni sa* and avaroha is sa* ni(komal) pa ma re sa
    Code:
    -----------------------------------------------------------------------------
       Bole re papihara ..   papihara  Nit man tarase nit man pyaasa
        s r r m  mt p  m r s nk s d p
    E|-------------------------------|-----------------------------------------  
    B|------------7-8----------------|---------------------5-------------------
    G|--5-7-7/10~~----10p7-5---5-----|-----5---7p5h7---5-7---7/10~~7-----------
    D|-----------------------8---7-5-|-5-5---7-------7-------------------------
    A|-------------------------------|-----------------------------------------
    E|-------------------------------|-----------------------------------------
    
    
    Nit man pyaasa nit man taraseee...  Bole re papiiiiharaaaaaaa aa   aa
    
    E|---------------------------5---|--5-5------------------------------------  
    B|-------------------7-5-8-7-----|------7p5-7-8-7-8-7-8-7-8-7-8h10-7h8-----
    G|-----5---7p5h7-5-7-------------|-----------------------------------------
    D|-5-5---7-----------------------|-----------------------------------------
    A|-------------------------------|-----------------------------------------
    E|-------------------------------|-----------------------------------------
    
    
     Bole re papihara...papihara      Bole re papiiiiiiiiiiiihara
    
    E|-------------------------------|-5-5-------------------------------------  
    B|-----5h7p5-7-8-7p5-------------|-----7p5-7-8-7h8h10p8-7\5-7-8------------
    G|-5-7---------------5-----5-----|-----------------------------------------
    D|---------------------8-8---7-5-|-----------------------------------------
    A|-------------------------------|-----------------------------------------
    E|-------------------------------|-----------------------------------------
    
    
    ~ = harmonic

    There r ma teevra and dha in my tabs so can anyone enlighten me as to whether my tabs r slightly wrong OR the song does not follow the Raaga strictly OR it is a variation of it?....
     
  2. anshphenomenon

    anshphenomenon Rape me :boff:

    good tabs!
    :)
     
  3. .:VinAY:.

    .:VinAY:. New Member

    i dun understand tabs but i must say - super effort!
     

Share This Page