paparoach-last resort

Discussion in 'English Guitar Tabs - Submit or Request' started by child_of_bodom, Jan 23, 2005.

  1. child_of_bodom

    child_of_bodom New Member

    e-------------------------------------------
    b-------------------------------------------
    g-------------------------------------------
    d--------------11------------------------11------------------------11------
    a--9-12-11-12----12-11-12---9-12-11-12-----12-11-12----12-11-12---12-
    E-------------------------------------------------------12---------------


    ---------------------------------------
    ---------------------------------------
    ---------------------------------------
    --------------------11-----------------
    11-12-----12-11-12---12-11-12--------
    -------11------------------------------

    repeat this twice

    then repeat this whole thing throughout verse

    e-------------------------------------------
    b-------------------------------------------
    g-------------------------------------------
    d--------------11------------------------11------------------------11------
    a--9-12-11-12----12-11-12---9-12-11-12-----12-11-12----12-11-12---12-
    E-------------------------------------------------------12---------------


    ---------------------------------------
    ---------------------------------------
    ---------------------------------------
    --------------------11-----------------
    11-12-----12-11-12---12-11-12--------
    -------11------------------------------
    chorus
    ------------------------------------------------------------------------------
    ------------------------------------------------------------------------------
    ----------------------------------------------111111111111111111111111111111--
    -14-14-14-14-14-14-14-0-10-10-10-10-10-10-10-0-x-x-x-x-x-x-x-x-x-x-x-x-x-x-x--
    -14-14-14-14-14-14-14-0-10-10-10-10-10-10-10-0-9-9-9-9-9-9-9-9-9-9-9-9-9-9-9--
    -14-14-14-14-14-14-14-0-10-10-10-10-10-10-10-0-0-0-0-0-0-0-0-0-0-0-0-0-0-0-0--


    allright i figured it only uptil here as soon as i figure our more i will paste it......
    hey guys pls tell me ow u like it
    :rock:
     
  2. silent_dragon

    silent_dragon Immortal guitarist

    hey its not like that!! i'm going to use another thread for this!!check it out since i've
    some other thing to explain too.
     
  3. silent_dragon

    silent_dragon Immortal guitarist

    after playing the rythm most of my friends play it this way..
    e----------------------------------------------------
    ----------------------------------------------------
    ----------------------------------------------------
    ------------7---------------------------------------
    ------8-7-8---8-7-8---------------------------------
    E----7-----------------------------------------------

    but I, play it this way...and I believe it is much better than theirs..

    e----------------------------------------------------
    ----------------------------------------------------
    ----------------------------------------------------
    -----5-4-5--7--5-4-5----5-4-5--7--5-4-5----5-4-5--7--5-4-5---
    --7-------------------6------------------5---------
    E----------------------------------------------------

    e----------------------------------------------------
    ----------------------------------------------------
    ----------------------------------------------------
    ---5-4-5--7--5-4-5----------------------------------
    -4--------------------------------------------------
    E----------------------------------------------------

    tht's it if u eant a cool touch try muting the strings too, while playing. :cool:
     
  4. child_of_bodom

    child_of_bodom New Member

    thanx for the advice dude but really i think ure one sounds a bit lower than the pitch although the tune is the same...but thanx man
     
  5. jackdaws

    jackdaws New Member

    bodom...i recommend using the three strings...a, d and g....its easier to play the song using the three strings.. rather than play on a and d alone...finger patterns will fit chord patterns, so more efficient...
     

Share This Page