pal pal dil ke paas...

Discussion in 'Hindi Guitar Tabs - Submit or Request' started by RASHMI JOSHI, Jan 2, 2010.

  1. RASHMI JOSHI

    RASHMI JOSHI New Member

    plz post correct lead n chords of this song
     
  2. raga2303

    raga2303 Member

    Look for Bandbaaja posting for this song.. no body can give you better chords.. if you can't find it, ask me..
     
  3. saurabhguitar

    saurabhguitar New Member

    i will gv u accurate chords of this songs in upcoming three days...for this pls check ur account.if u want any other chords pls send me i wil definitely gv u...ok....
     
  4. metal_fan69

    metal_fan69 To Live Is To Die

    search karo yaar.... it is already posted here I guess.... checked it long back
     
  5. metal_fan69

    metal_fan69 To Live Is To Die

  6. bitz09

    bitz09 New Member

    Intro Guitar Lead
    A--3/5--------------------------------------------------------------------
    D-------5---------------------------------------5--4----2----4----5-------
    G----------7--5--4--2--5--4-------2--5--4--2-----------------------------
    2times-----2nd time play fast

    keyboard part
    D--5555-----------------------------------------2---4---5---------------------
    G--------4444--------4444--2h4444--2h4444--------------------------------
    B--------------3333--------------------------------------------------------

    Song
    D--2--4--5-------------2--2--44--5---------------------------------------
    G-----------5--4--2-------------------------------------------------------
    ---pal--pal--dilkepas--tum--rehtiho--------------------------------------

    G--4--55----------------------2--2--4--5-4-------------------------------
    B---------3---5---3---1h3------------------------------------------------
    ---jeevan-meethi--pyaaaas---yeh--kehetiho-----------------------------

    A--5--5-------------------------------------------------------------------
    D--------2-2--2--2--2-------2--------------5--5-4--4-2--2-0--------------
    G-------------------------------4--4-2--2--------------------------------
    ---har--shyamankonper-----teray-aanchal--leharaaaaaaaayee------------

    A----5--------------------------------------------------------------------
    D-------------------------------------------------------------------------
    G-------------------------------5--5-4-2--2--2-5--5-4--4------------------
    B--------3--3--1-3--3-5--5-3---------------------------------------------
    ----har---raat---yaadon---ki----baaraaaaat---le---aayeee-----------------

    D-----------------5-5--5-0------------------------------------------------
    G----4--2-4-2--2---------------[ 4times ]---------------------------------
    -----Maein--saans-leta--hoon---------------------------------------------

    A----55-------------------------------------------------------------------
    D-------------------------------------------------------------------------
    G-----------------------------5----5-4--2-2--2-5--5-4---------------------
    B--------3--3--3-3-3-5--5-3----------------------------------------------
    ----meri--dilki---dhadkan--bhi----tete-geet-gaatihai-----------
     

Share This Page