OrIgNaL TaBs - YaDeIn bY rOxEn

Discussion in 'Pakistani Guitar Tabs - Submit or Request' started by Orange Guitar, Aug 22, 2005.

  1. Orange Guitar

    Orange Guitar IGT's ALLROUNDER

    Yar plz...ab reps day daina otherwise this will
    be my last post!!!!!!!!!!!!!!!!!!!!!!!!!!!!!!!!

    ---------------------------------------------------

    Song : Yaadein

    Band : Roxen

    Tabbed By : Orange Guitar

    ---------------------------------------------------

    THESE TABS ARE NOT COPIED...THIS IS MY WORK
    CPOY PASTING THESE TABS ARE STRICKLEY PROHIBITED

    ---------------------------------------------------

    Ok...here is the intro....:

    |-----------------------------------------|
    |-----3-----3-----3-----3-----------------|
    |----0-----0-----0-----0------------------|
    |-----------------------------------------| (Play 8 times)
    |---------------2-----3-------------------|
    |--3------2-------------------------------|

    Then a riff is played with chords..and
    the vocal come behind:

    Riff:

    |-----------------------7------------------|
    |-7-8-8-10-8-8-8--7-8-8---8-8-8------------|
    |------------------------------------------|
    |------------------------------------------| (Play about 5 times)
    |------------------------------------------|
    |------------------------------------------|

    Chords:

    [G major] [Cadd9]
    |---3--------------3-----------------------|
    |---3--------------3-----------------------|
    |---0--------------0-----------------------|
    |---0-(Strumming)--2-(Strumming)-----------|
    |---2--------------3-----------------------|
    |---3--------------x-----------------------|

    Then electric guitar plays these chords
    as arpeggio:

    (First strum the lower 3 strings then play
    arpeggio on lower 3 strings)

    |----x--~--7--~--3-------------------------|
    |----x--~--7--~--3-------------------------|
    |---11--~--7--~--4-------------------------|
    |---12--~--9--~--5---(Repeat)--------------|
    |---12--~--9--~--5-------------------------|
    |---10--~--7--~--3-------------------------|

    [YEAH MAN TARAPTA JAYE......]

    Then again, play riff with chords:

    Riff:

    |-----------------------7------------------|
    |-7-8-8-10-8-8-8--7-8-8---88---------------|
    |------------------------------------------|
    |------------------------------------------| (Play about 5 times)
    |------------------------------------------|
    |------------------------------------------|

    Chords:

    [G major] [Cadd9]
    |---3--------------3-----------------------|
    |---3--------------3-----------------------|
    |---0--------------0-----------------------|
    |---0-(Strumming)--2-(Strumming)-----------|
    |---2--------------3-----------------------|
    |---3--------------x-----------------------|

    Then the verse comes in with these chords:

    ----------------------------------
    Gmaj(320033),Em7(x22033),D(xx0232)
    ----------------------------------

    Gmaj.................Em7..........D......
    Tum say yeah raastay kyon hon gay juda...

    Gmaj.......................Em7....D.....
    Kal kee yeah pukaar hai na hon ab khafa..

    Then:

    Play this for both verse.

    (First strum the lower 3 strings then play
    arpeggio on lower 3 strings)

    |----x--~--7--~--3-------------------------|
    |----x--~--7--~--3-------------------------|
    |---11--~--7--~--4-------------------------|
    |---12--~--9--~--5---(Repeat)--------------|
    |---12--~--9--~--5-------------------------|
    |---10--~--7--~--3-------------------------|

    [TOU PHIR KYON YEAH DOURIYAN......]

    A smaal riff played:

    e|-15p14-----------------------------------|
    B|-------15--------------------------------|

    Electric guitar plays this before solo:

    |--x------------------x--------------------|
    |--x------------------x--------------------|
    |--7-(keep strumming)-2s5-(keep strumming--|
    |--x------------------x--------------------|
    |--x------------------x--------------------|
    |--x------------------x--------------------|

    Then a very simple solo:

    |----------------------------------------------|
    |-8s10s8-12-10-8---8s10s8--12--10--10s12s15-15s|
    |----------------------------------------------|
    |----------------------------------------------|
    |----------------------------------------------|
    |----------------------------------------------|

    Verse with same chords:

    Gmaj.................Em7..........D......
    Dooriyan Majbooriyan rokay kyon mujhay

    Gmaj.......................Em7....D.....
    Jaan lay ke ab ..........................

    (Electric Guitar Part)

    |----x--~--7--~--3-------------------------|
    |----x--~--7--~--3-------------------------|
    |---11--~--7--~--4-------------------------|
    |---12--~--9--~--5---(Repeat)--------------|
    |---12--~--9--~--5-------------------------|
    |---10--~--7--~--3-------------------------|

    [Ik pyaas...........]

    Play the small riff and then play the chords
    as given above for the verses and chorus. Then
    some aaaaa.. with G and Cadd9

    Power chords lead to ending:

    |--x--x---x--x-x------------x---------------|
    |--x--x---x--x-x------------x---------------|
    |--x--x---x--x-x------------x---------------|
    |--9-10--12--9-5--(Repeat)--5---------------|
    |--9-10--12--9-5------------5---------------|
    |--7-8---10--7-3------------3---------------|
     

    Attached Files:

    faiqrock and rizaaj like this.
  2. khurram_adil

    khurram_adil New Member

    havnt tried em ...but since u've been workin on tabs ..u deserve reps from me sure...
     
  3. pure_angel

    pure_angel New Member

    fyt hai yar
     
  4. grimreeper_007

    grimreeper_007 New Member

    gud work orange
     
  5. Orange Guitar

    Orange Guitar IGT's ALLROUNDER

    thnx every1...other guyz do tell me abt these tabs!
     
  6. rizaaj

    rizaaj Forum Leader

    nice work and good compilation orange... repped you for this effort.... but havent tried the chrods and tabs... willl comment after trying :D...

    rock on...
     
  7. larsan

    larsan K-Dash

    really papu(Great) work orange.....u rockzzzzzzzzzzzzzzzzzzzzzzz
     
  8. Mohsin shahid

    Mohsin shahid New Member

    looking good havent tried yet
     
  9. ImR@|\|

    ImR@|\| GuiTar MaNiaC

    well. orange.. i think u hav worked really hard for this.. man.. but. .am sorry to say.. ur intro is wrong .. Riff.. which u shud have said filter itz wrong.. havent given the chords progression along wid the Lyrix so that beginner can understand easily.. and.. all chords r wrong.. I swear i showed my chords to Omar. the Rythm guitarist of Roxen n he said.. itz perfect.. this is wut we used in the songz.. So .. orange.. am sorry.. but next tym.. do praise otherz work.. instead being urself more popular.

    People just see this
    http://www.indianguitartabs.com/showthread.php?t=11778&highlight=roxen
    The chords progression with the song is 100% correct.. any beginner can play it easily..
     
  10. Orange Guitar

    Orange Guitar IGT's ALLROUNDER

    ur chords are wrong dude....there is clear noice of changing the chords between slow parts....and when you change Em7 to Dm...it makes no voice...and it also sound no good.....my chords are perfect.....chords for slower parts are also perfect....i dont know that Omer (as u r saying) said that ur chords are perfect....i think he forgot his own song's chords......i didn't give the lyrics coz it makes the song longer and confusion is produced in it!!!!!! i disagree with your chords.......other guyz should tell me that which one's chords sound better!!!

    ONE MORE THING!!!! I DIDN'T POST THESE TABS FOR COMPETITION!!!!!!!!!!!!!!!!!!!!!!!!!
     
  11. Orange Guitar

    Orange Guitar IGT's ALLROUNDER

    and also I dont like this type of posts......mods...plz....do somethin for this post! :mad:
     
  12. rizaaj

    rizaaj Forum Leader

    chill guys... i wanted to comment on the tabs.. but i cant.. coz i havent tried so far.. but having a good look at it... it clearly show that the chords are good infact they are next to perfect...

    because in the middle verse you cannot put in a Dm... Em7 sounds much better... (anyways i use Bm)

    @imran.. please mind ur words.. we are not here to fight.. and as J.J said in another thread that criticism is accepted but upto an extent...

    i dont know why we pakis have to fight everytime
     
  13. BIG_EVIL

    BIG_EVIL Guitaring Machine

    i dont even like this band
     
  14. Imranyou2k5

    Imranyou2k5 New Member

    ppl always say they know ppl from a band and those band members say their tabs are correct and i saw this in many post do u really believe them???
     
  15. Orange Guitar

    Orange Guitar IGT's ALLROUNDER

    yar main hai maanta!!!!!!!!!!!!!!!!!
     
  16. J.J

    J.J The Guitar God

    orange baki sab theek hai bas i think that D maj is wrong...well that is my opinion so i don't play D maj...u know how i play i mean after checking out my yaadein...overall gud work...by both of us...;)
     
  17. divva

    divva New Member

    well...they sound good!!!good work orange!!!!
     
  18. J.J

    J.J The Guitar God

    hey Divva try my tabs too...plz...i don't usually c u on IGT...
     
  19. Orange Guitar

    Orange Guitar IGT's ALLROUNDER

    u can also play (xx0233) instead of playing Dmaj.....original is Dmaj..listen 2 song!
     
  20. Spellbinder

    Spellbinder Crescentarian

    they just rock u really deserve good replies
     

Share This Page