Old Hit - 9: Tabs for the song Madhanorchavam Rathiyoduthan - V Kumar's Hit Song

Discussion in 'Tamil Guitar Tabs - Submit or Request' started by SATHYA167, Dec 15, 2013.

  1. SATHYA167

    SATHYA167 New Member

    Sathurangam (1978) was a hit movie - Thalaivar film

    V Kumar, one of the greatest Composer of 70-80's, had given many melodious tunes & had done a wonderful job in this song.

    You should listen to the song. The chords were seen recently - Posted by V. Suresh

    The tabs are within the Harmonic G Minor scale notes (By and large, except few deviations).

    This is a rare lovely number and I hope you would enjoy playing this in your guitar.

    Pick, Play and Enjoy & do post your views / comments.................. Sathya
     

    Attached Files:

  2. Kshitij.metal

    Kshitij.metal New Member

    Good For Show off
    W
    E |--------------7--12-7--12---|--7-------------------------|
    B |-----7--8--10---------------|-----11-10s15-10-15-10------|
    G |--9-------------------------|-----------------------13---|
    D |----------------------------|----------------------------|
    A |----------------------------|----------------------------|
    E |----------------------------|----------------------------|


    ----------------------------|-------||
    ----------------------------|-------||
    --12s17-12-17-12----12------|-------||
    -----------------16----16b--|--14---||
    ----------------------------|-------||
    ----------------------------|-------||
     
  3. vs.suresh

    vs.suresh New Member

    Thanks Sathya for posting the tabs for this lovely song...

    Keep posting..
     

Share This Page