"Now & Forever" by "Richard Marx" - Complete tabbings

Discussion in 'English Guitar Tabs - Submit or Request' started by nishantsomani, Nov 12, 2005.

  1. nishantsomani

    nishantsomani Guitarist

    @subhro was talking that Solo is missing out. Thanks subhro! And moreover, i myself didn't realise that "now & forever" tab isn't on IGT archives. So here's the link and try it out. I had tabbed the solo few years back for some other guitar website.

    Link that'll lead you to "Now & Forever" full tabbings: http://www.guitartabs.cc/fetchfile.php?fileid=6632650

    I understand that it'll be very tough synchronizing, but its worth trying. Never give up!

    I'm editing my earlier work and posting simply the solo here. But i'd suggest you all to visit the link as i've included the rhythm in there, which i feel should considerably ease playing the solo along with the song.


    Code:
    Solo (only) :
    
    e|-----------------------------------------------------------------
    B|----------------------------------4--5---4--5---5h7p5--4---------
    G|---------------------------------------7------------------5---7--
    D|-5--5h7p5--4---5---7---7/9---9-----------------------------------
    A|-----------------------------------------------------------------
    E|-----------------------------------------------------------------
    
    e|--------------------------------------------------7--------------
    B|--------------------------8---------7----7h8p7-------------------
    G|-----------------4h7--4------4-----------------9-----------------
    D|--------4--5--7-----------------7--------------------------------
    A|----5-7----------------------------------------------------------
    E|-----------------------------------------------------------------
    
    e|--7h8-7-7h8p7---------9------------------------------------------
    B|--------------10--10-----8----------8-8------8/10----------------
    G|-------------------------------7-7--------7----------------------
    D|-----------------------------------------------------------------
    A|-----------------------------------------------------------------
    E|-----------------------------------------------------------------
                                 
    e|-----------------------------------------------------------------
    B|---------8-7h8p7-------------------------------------------------
    G|------------------9--7\5\4\2----4---5----------------------------
    D|-----------------------------------------------------------------
    A|-----------------------------------------------------------------
    E|-----------------------------------------------------------------
     
  2. vini

    vini Repeat Offender

    im really cofused..which part is this? the vocal melodies or the original leads :think: ur tabs sumhow dont ring a bell :(

    plz make me understand this asap
     
  3. nishantsomani

    nishantsomani Guitarist

    @vini, i had already mentioned that its going to be difficult to synchronize. It isn't an easy song to play. It'll take time.
    Rather your confusion has confused me considerably. The only posted portion is the SOLO... and there is only one solo in the song.
    Umm.... still you got to let me know where exactly you are facing the problem. Are you facing the problem in timing the notes or is it something else?
    What is it? Let me know, i'll try to make you understand as much as possible.
     
  4. nishantsomani

    nishantsomani Guitarist

    Forgot to mention... you said that the tabs doesn't ring a bell..... lol... Actually, unless you understand the rhythm, it'll never ring for anyone...so just try it out...and most importantly try to understand the behavior of both the guitars being played and its synchronisation....
    Else i'm here only to help.
     
  5. Music_lover

    Music_lover New Member

    thanks a great deal... the lead is just awesome...good work! it was indeed difficult to understand for the first few times when i tried the song but later on it was fine. its just very perfect. How you manage to tabs such songs??
    by the way, i'm a little confused. is the song being played fingerplucking or with a pick?
     

Share This Page