Notes for En Iniya Pon Nilave - Intro Music

Discussion in 'Tamil Guitar Tabs - Submit or Request' started by arivarasan, Feb 18, 2014.

  1. arivarasan

    arivarasan New Member

    Hi Everyone,

    Please try this and give your comments,

    Song: En Iniya Pon Nilave(Intro Music)

    A - B C B
    A - B C B
    A - C B C
    A - D C#D
    A - C B C
    A - D C#D
    A - C D A G F

    Note:-

    here G - 4th String 4th Fret
    F - 4th String 3rd Fret

    Thanks & Regards,
    Arivarasan
     
  2. sathish lion

    sathish lion New Member

    super .. :beer:
     
  3. sathish lion

    sathish lion New Member

    B ---0--1--0
    g -2--------

    b ---0--1--0
    g -2--------

    b ---1--0--1
    g -2--------

    b ---3--2--3
    g -2--------

    b ---1--0--1
    g -2--------

    b ---3--2--3
    g -2--------

    b ---1--3---
    g -2------2--
    d-----------4-3
     
  4. sathish lion

    sathish lion New Member

    the above notes are also from arrivarasan bro !! enjoy music
     

Share This Page