Noori - Ooncha (Chords+Solos)

Discussion in 'Pakistani Guitar Tabs - Submit or Request' started by shark92, Oct 18, 2007.

  1. shark92

    shark92 New Member

    NOORI - OONCHA

    Note: There are some solos that are in the song which aren't too recognizable but they're there. I didn't know it either till I listened to it on my Mp4 player.


    \ = Slide
    b = Bend

    Chords used in the verse:
    D XX0232
    G 320033
    Bm X24432
    A XX2220


    Same chords are used in the chorus but different versions (for electric):
    D X577xxx
    G 355xxx
    Bm X244xxx
    A X022XXX


    Intro:

    D G Bm A G

    D G
    Ooncha hoon main, girna nahin chahta
    Bm A G
    Chahay mann jalay, ya tann jal jayay

    Rest of the verse goes in the same pattern:

    Oonchee meree dunya aur yeh khyaal
    Keh jalay jo koee, to meree hi balaa se


    Chorus:

    D A G
    Oonchee zameen uspe oonchay maka(h)an aur oonchay hain log
    Bm A G
    Oonchay khayaal, par neecha hai dil
    A G
    Aur neecha imaan, aur neecha zameen
    A D
    Uspe oonchee hai shaan


    Solo no.1:

    G|-----7--7-7-------7--7-7------7---7-7------7---7---7\9----------------------|
    D|-9-9--9-----9-7-7--7----7-5-5---5--------5---5---5--------------------------| X2

    G|--9--9-9\11---------|
    D|-7--7--7\ 9---------| <-----{Play this at the end of the second time the above solo's played}




    In the part where Ali Azmat sings, two guitars are playing......both are electric. One plays a sort of solo and the other plays the chords Bm, A, G, A. Play the whole thing with the same strumming pattern like the first line has.


    Bm A G A
    Ho rabba koi na meray dil diyaan qadraan pachaanay
    Mein sawaali jidda naeen koi sawaal
    Mein jogan ban dar dar phirdee, ai meriyan ramzaan pachaanay
    Mein jogan ranjhan di ai chal meray naal...


    This Solo is played when the A chord is played in the end of each line (for eg its played at pachaanay in the first line)
    E||-10-------|
    B||----10----|
    G||----------|
    D||-------12-|
    A||----------|
    E||----------|




    D A G
    Oonchee zameen uspe oonchay maka(h)an aur oonchay hain log
    Bm A G
    Oonchay khayaal, par neecha hai dil
    A G
    Aur neecha imaan, aur neecha zameen
    A D
    Uspe oonchee hai shaan


    Oonchay khayaal,
    G|-\11-11-9-9--|


    Par neecha hai dil, Aur neecha imaan
    E||------------------------|
    B||------------------------|
    G||-------19-----------19---|
    D||----19---19------19---19|
    A||-17-----------17--------|
    E||------------------------|


    Aur neecha imaan, aur neecha zameen, Uspe oonchee hai shaan
    E||----------------------------------|
    B||----------------------------------|
    G||----------------------b19---------|
    D||----------------19-21-----21-19-21|
    A||-------17-19-21-------------------|
    E||-17-19----------------------------| X 2




    It's kinda fast but this last solo was pretty easy coz it was exactly like part of the solo in Meray Log.....just faster and there's a little bending.

    I recorded the ending part to show how it should be played ..... I used GuitarFx so there's a little noise in the background and I put my guitaring on one side (left or right). I took the verse and chorus chords from Ultimate-guitar.com posted by Xen. I also included the .txt version of the tab because I spaced where each chord should start in it.

    Download from here:
    http://www3.speedyshare.com/data/407562486/6773699/69693898/Noori - Ooncha.zip
     

    Attached Files:

Share This Page