NEW CHORDs OF AADAT/BIKHRA HON MEIN REQUIRED...?

Discussion in 'Pakistani Guitar Tabs - Submit or Request' started by ARIESBOY, May 22, 2005.

  1. ARIESBOY

    ARIESBOY New Member

    HEY NE1 WATCH THE JALs NEW VDO (AADA/BIKHRAHONMEIN) :shock: ...IF YES...THEN PLzZ TELL ME THE CHORDS PATTERN WHICH GOHER PLAYED ...I THINK ITs DIFFER 4RM THE ORIGNAL 1.....WITH LOTS OF MUTING.& ITs SOUNDS MORE (CHINCHINCHIN ).... :dance: ....PLzZz HELPP ME :nw:

    u can download the VDO 4RM WWW.PAKMEDIAREVOLUTION.COM :rockon:
     
  2. BIG_EVIL

    BIG_EVIL Guitaring Machine

    yeah i have seen the video

    dude he uses the same chords with thori see muting
    and some semi-acoustic guitar effect :annoyed:
     
  3. Authentic

    Authentic Banned

    ok guys, these arnt the complete tabs , coz woh bhi download ho raha hai.......... meh kazaa sey ker raha hoon is liyeh dekh sakta hoon thura sa.......

    Now you have to figure the mute strumming ur self

    e|-x-----|-------x---------|-------x----------|-----------------|
    B|-x-----|-------4---------|-------x----------|-----------------|
    G|-x-----|-------x---------|-------6----------|-----------------|
    D|-x-----|--------x--------|--------6-------|-----------------|
    A|-x-----|-------x--------|---------x--------|-----------------|
    E|-x-----|-------x---------|-------x----------|-----------------|


    e|-x-----|-------x---------|-------x----------|-----------------|
    B|-x-----|-------5---------|-------x----------|-----------------|
    G|-x-----|-------x---------|-------6----------|-----------------|
    D|-x-----|--------x--------|--------6-------|-----------------|
    A|-x-----|-------x--------|---------x--------|-----------------|
    E|-x-----|-------x---------|-------x----------|-----------------|

    e|-x-----|-------x---------|-------x----------|-----------------|
    B|-x-----|-------2---------|-------x----------|-----------------|
    G|-x-----|-------x---------|-------4----------|-----------------|
    D|-x-----|--------x--------|--------4-------|-----------------|
    A|-x-----|-------x--------|---------x--------|-----------------|
    E|-x-----|-------x---------|-------x----------|-----------------|

    e|-x-----|-------x---------|-------x----------|-----------------|
    B|-x-----|-------0---------|-------x----------|-----------------|
    G|-x-----|-------x---------|-------2----------|-----------------|
    D|-x-----|--------x--------|--------2-------|-----------------|
    A|-x-----|-------x--------|---------x--------|-----------------|
    E|-x-----|-------x---------|-------x----------|-----------------|

    when the song starts the chords are the same of addat , but goher dosent plays the solos.................
     
  4. ARIESBOY

    ARIESBOY New Member

    Authentic

    OK I M WAITIN TILL U TAB OUT THE FULL SONG... :cool:
    & THNX 4 THE ABOVE PART....... :rule:

    WAITIN............................ :dance:
     
  5. ENT

    ENT TuMhArAa_AKS

    hey wats the chords & strumming pattern on acoustic in Aadat in when "sabhi ratien hai" start plz submit :rock:
     
  6. Authentic

    Authentic Banned

    ENT, which tabs you are asking, live version or original version?
     
  7. ENT

    ENT TuMhArAa_AKS

    live version man the chords used in aadat bikkhra video and strumming too
     
  8. kl12

    kl12 (Ghost Note)

    the chords are same yaar.......they just improvised a bit..with string muting sounds...
     
  9. ENT

    ENT TuMhArAa_AKS

    ok then post them too with strumming
     
  10. Orange Guitar

    Orange Guitar IGT's ALLROUNDER

    GUYZ!!!!!!!!!!!!!!!!!!!!!!!! I HAVE POSTED THE ORIGINAL VERSION AND THE BEST AND THE MOST ACCURATE VERSION OF THIS SONG..................WHY DONT U GUYZ JUST SEARCH THE FORUM!!!!!!!!!!!!!!!!!!!!!!!!!!!!!!!!!!!!!!!!!!!!!!!!!!!!! :mad: :mad:
     
  11. rizaaj

    rizaaj Forum Leader


    come one yaar its the same thing over and over... and same strumming...
     
  12. Authentic

    Authentic Banned

    he has just plugged in his semi thats why the sound is attractive....

    and orange guitar why dont you post the url then?
     
  13. Quadrophenia

    Quadrophenia New Member

    yeah leave this song alone..now..listen to the strumming ..this the best kinda excersie u know the chords any which ways!
     
  14. Orange Guitar

    Orange Guitar IGT's ALLROUNDER

    why dont u guyz listen 2 me!!!!!!!!
     
  15. Authentic

    Authentic Banned

    orange i did,. you didint
     
  16. Orange Guitar

    Orange Guitar IGT's ALLROUNDER

    Here is the plugged and original version!
     

    Attached Files:

Share This Page