Neethaane En Ponvasantham Song Guitar cover

Discussion in 'Tamil Guitar Tabs - Submit or Request' started by cibhin, Jan 6, 2013.

  1. cibhin

    cibhin New Member

  2. vs.suresh

    vs.suresh New Member

    Hi Cibhin, Nice attempt.... Really good...

    But the song is not in Em... it is in F#

    The song starts with F#sus4 and then F#m9 ....
     
  3. WatchingYou

    WatchingYou New Member

    Wrong post!
     
  4. santya

    santya New Member

    hey

    Hi, can i have the tabs for onnum purile song from kumki please. Thanks. :)
     
  5. cibhin

    cibhin New Member

    E-5-5-5-5-----5-5-5-5-------||
    B---------6------------6-----||
    G-----------7------------7---||
    D----------------------------||
    A----------------------------||
    E----------------------------|| X 2

    E-5s6-5-------|
    B-------8-6-5-|
    G-------------|
    D-------------|
    A-------------|
    E-------------|
    '

    Le me know how it sounds....
     
  6. santya

    santya New Member

    Its good. but im not getting the exact~! but thanks anyway!
     

Share This Page