Neele Neele Ambar Par(Golden Hits Rewind) Guitar Chords

Discussion in 'Hindi Guitar Tabs - Submit or Request' started by jimihndrx, Sep 5, 2015.

  1. jimihndrx

    jimihndrx Guitar Hero

    [​IMG]
    Song- Neele Neele Ambar Par
    Film- Kalakaar(1983)
    Lyrics- Indevaar
    Music- Kalyanji-Anandji
    Singer- Kishore Kumar
    Key- D Natural Minor


    Chords-Continuing my "Golden Hits Rewind Series#2"..This week I present you chords and tabs from a Iconic number by the Legendary Music Directors Kalyanji-Anandji. They were one of the most popular and prolific MD's of Bollywood.
    The Brothers Duo had a long career in the Music Business (right from the Late 50's to Mid 90's). They gave career defining songs to Big B which are still very popular.Their composed songs are still being Remixed or Sampled by Bollywood and Foreign artists alike(such is the timelessness nature of their compositions!)

    Note- Popular to contrary belief..this song is Not a direct lift from the Tamil song 'Ilaya Nila' (by the Southern Maestro Ilayaraja).
    Yes Kalyanji-Anandji adapted the tune of the Mukhra of the Tamil song to the Mukhra of their number. But the Intro, Antras & Interludes are totally different and 100% Original. The style of this kind of Guitar Playing is Known As Flamenco. It was played on Acoustic Nylon strings Guitar.


    So here we go..


    #Intro Guitar Riff-
    E|--------------------------------------------------------------------X-----
    B|--------------------------------------------------------------------3-----
    G|-----2--3--2-3-2-3-2-3-2---0-2-0---0--------------------------2-----
    D|--0------------------------------------3-----3--2-3-2----0-------0-----
    A|--------------------------------------------------------------------X-----
    E|--------------------------------------------------------------------X-----

    Mukhra1(slow):
    Neele neele ambar par..(*Fill1)
    Chaand jab aaye..(*Fill2)
    Pyaar barsaaye..(*Fill3)
    Humko tarsaaye..(*Fill4)
    Aisa koi saathi ho..(*Fill5)
    Aisa koi premi ho..(*Fill6)
    Pyaas dil ki..(*Fill7)
    Bujha jaaye..(*Fill8)

    #than strike Dm bar chord(5th fret) and slide it(keeping the same finger position) downwards till open.

    #Guitar Riff-(2 times)
    E|-----------------------------------------------------------
    B|-----------------------------------------------------------
    G|------------------------------------------------------------
    D|------------------2-5-3-2--2-0----------------------------
    A|---0-4-5--0h5-------------------3-5-----------------------
    E|--------------------------------------------------------------

    #Strings Ensemble-(Dm)..(C)..(Dm)..(C)..(Dm)

    Mukhra2(fast):
    (Dm)Neele neele (C)ambar par chaand jab (Dm)aaye..
    ..pyaar bar(C)saaye humko tar(Dm)saaye..
    ..(Dm)aisa koi saathi ho aisa koi (C)premi ho..
    ..pyaas dil (Bb)ki bujha jaa(Dm)ye..

    (Dm)Neele neele (C)ambar par chaand jab (Dm)aaye..
    ..pyaar bar(C)saaye humko tar(Dm)saaye

    Interlude1-

    #Guitar Lead-
    *Notes inside the bracket means-pick these notes as fast as possible
    E|-----------------------------------------------------------------------------------------------------
    B|------------------------------------------------------------------------------------------------------
    G|-------------------------------------------------------------------------------------------------------
    D|----------5-6--6h7-7-6-7--(7-8-7-5-7)--5-7-8-9--9h10-10-9-10--(10-12-10-9-10)-----------
    A|--5-7-8-----------------------------------------------------------------------------------------------
    E|-------------------------------------------------------------------------------------------------------


    #Guitar Lead(contd.)
    E|-------------------------------------------------------------------
    B|--------------------------------------------------------------------
    G|------7--8--9--7-9-10-9-10-9-10-9--5-7-9-7-9-7-9-7---------
    D|--10----------------------------------------------------------------
    A|----------------------------------------------------------------------
    E|----------------------------------------------------------------------

    #Than Chords Strummed-{(Dm bar)..(CM bar)..(Bb bar)}-[very fast DUDUDU strokes]

    #Shred part(pick as fast as possible)
    E|-------------------------------------------------------
    B|-------------------------------------------------------
    G|-------------------------------------------------------
    D|--7-8-10-8-7-5--------------------------------------
    A|--------------------8-7-8-10-8-7-5-4-5-------------
    E|-------------------------------------------------------

    *another alternate way to play the above lick
    E|---------------------------------------------------------
    B|---------------------------------------------------------
    G|--2-3-5-3-2-0----------------------------------------
    D|------------------3-2-3-5-3-2-------------------------
    A|----------------------------------5-4-5----------------
    E|---------------------------------------------------------


    #Strings Ensemble- (Dm)..(C)..(G)..(C)..(Dm)

    Antra:
    (Dm)Oo..oonche oonche parvat jab (C)choomte hain ambar ko
    (Bb)pyaasa pyaasa ambar jab (C)choomta hai saa(A)gar ko

    (Dm)oonche oonche parvat jab (C)choomte hain ambar ko
    (Bb)pyaasa pyaasa ambar jab (C)choomta hai saa(A)gar ko..(A)..(A)..(A)..(Dm)..

    ..Pyaar se (C)kasne ko..baahon mein (Dm)basne ko..
    ..dil mera (C)lalchaaye..koi toh (Dm)aa jaaye..
    ..aisa koi (Dm)saathi ho aisa koi (C)premi ho..
    ..pyaas dil (Bb)ki bujha jaa(Dm)ye..

    ..Neele neele (C)ambar par chaand jab (Dm)aaye..
    ..pyaar bar(C)saaye humko tar(Dm)saaye

    rest of the song is same

    #Interlude2-(Its a Task for u all..try it!)

    #Interlude3-same as Interlude1

    #Guitar Fills-

    *Fill1
    E|----------------------------
    B|----5-6-5-6-5-6-5-------
    G|----------------------------
    D|----------------------------
    A|----------------------------
    E|----------------------------

    *Fill2
    E|----------------------------
    B|-------5-6-5----5-6-------
    G|----7---------7-------------
    D|----------------------------
    A|----------------------------
    E|----------------------------

    *Fill3
    E|----------------------------------
    B|--------5-6--8--8/10-10-------
    G|---5-7---------------------9----
    D|---------------------------------
    A|----------------------------------
    E|-----------------------------------

    *Fill4
    E|-------------------------X--------
    B|----6-5-6-5-6-5-------3--------
    G|------------------------2--------
    D|------------------------0--------
    A|------------------------X--------
    E|------------------------X--------

    *Fill5
    E|----------------------------10vvv-----
    B|-------5-6-8-8/10-10----------------
    G|----7----------------------------------
    D|----------------------------------------
    A|-----------------------------------------
    E|-----------------------------------------

    *Fill6
    E|--------------8-10-10/12-----12----
    B|------8-10----------------------------
    G|---9-----------------------------------
    D|----------------------------------------
    A|----------------------------------------
    E|----------------------------------------

    *Fill7
    E|-----------------------------------
    B|------6-8-6-8-6-8-6-8-6-8------
    G|---7-------------------------------
    D|------------------------------------
    A|------------------------------------
    E|------------------------------------

    *Fill8
    E|------------------------------
    B|------------------------------
    G|------------------------------
    D|----0-------------------------
    A|------------------------------
    E|------------------------------


    jimihndrx

    [Total songs covered in IGT-231 songs*]
    [Languages covered- Hindi,Tamil, English, Punjabi & Bengali]
    [Active Since- April 2012]
    (*-Till this post)
     

    Attached Files:

    Last edited: Jul 29, 2017
    Super-Admin likes this.
  2. raga2303

    raga2303 Member

    big thumbs up
     
  3. jimihndrx

    jimihndrx Guitar Hero

    Thankyou very much.

    jimihndrx
     
  4. nvedia

    nvedia New Member

    Good to know it was acoustic nylon guitar
     
  5. kushansudan

    kushansudan New Member

    Hey if you can post a youtube video of above that would be really helpful to get the solos and licks timing.
     
  6. jimihndrx

    jimihndrx Guitar Hero

    I'll post a tutorial when i find some time.

    jimihndrx
     
  7. kushansudan

    kushansudan New Member

    Sure thanks mate.
     

Share This Page