NEEL - Anjan Dutta

Discussion in 'Bengali Guitar Tabs - Submit or Request' started by Arindam.Ray, Sep 22, 2005.

  1. Arindam.Ray

    Arindam.Ray Undertaker

    I dont know folks whether you like this song or not...but it's one of my favourite...not only for guitarings,but also the composition & Strong Lyrics...


    G/D D/G C6add9

    e---3--------2---------0-----
    B---3--------3---------1-----
    G---4--------2---------0-----
    D---0--------0---------0-----
    A---x--------x---------x-----
    E---x--------3---------x-----


    Prelude:G/D..Am..G/D..D/G..

    G/D..................Am.............D/G..G/D....
    Neel mane fele asha sokoler,akasher ekta naam,

    G/D..................Am............D/G..G/D....
    neel mane valobashar govire lukono ekta rong,

    G/D..................C6add9...Am...........D/G..
    Neel ekta chena chena kobekar neelimar onyo naam,

    N.C.........G/D...
    Neel ekta nuum.

    Interlude:G/D..Am..G/D..D/G..

    G/D................Am.............D/G...G/D....
    Lal ekta moja pore cheleta,relinge,dule jay,

    G/D.................Am...............D/G..G/D....
    lal mane chelebelar surjota,drawing-r khatay,

    G/D................C6add9........Am...........D/G..
    lal ajke amar kache rajniti,bore hoye gechi,je hay,

    N.C......G/D...
    ki kora jay!

    Interlude:G/D..Am..G/D..D/G..

    G/D....................Am..............D/G..G/D....
    Sobuj mane gacher pata bere jay,sobujer sovab,

    G/D...................Am...............D/G..G/D....
    gach pota hoyeni bole shohore,shobujer ovab,

    G/D.......................C6add9....Am......D/G.....
    shobuj ronger monta chilo amar-o,ki je holo,kothay,

    N.C..G/D....
    Kothay ?!

    Interlude:G/D..Am..G/D..D/G....Seague to LEAD PART.....

    Lead :

    e------------------------------------------
    B--------------3---------------------------
    G---0-2-2h4---4-0-2---2---------------
    D-0-------------------------2-------------
    A------------------------------------------
    E------------------------------------------

    e-----------------------------------------
    B------3--3------------------------------
    G-2h4--4--4-2--0----------------------
    D--------------------0--------------------
    A------------------------------------------
    E------------------------------------------

    e-----------------------------5--8--------
    B-----------------3--3s5--5--8----------
    G----0-2-2h4-2--4----------------------
    D--0---------------------------------------
    A-------------------------------------------
    E-------------------------------------------

    e--7s8-7----------------------12----------------
    B---------10-88s10--10h12----10------------ [88 means play "G" note twice & slide]
    G---------------------------------------10--------
    D--------------------------------------------------
    A--------------------------------------------------
    E--------------------------------------------------


    Interlude:G/D..Am..G/D..D/G...

    G/D..................Am...........................D/G..G/D....
    Voy mane kalo kalo chayata,deyale rattire,

    G/D..................................Am.........................D/G.....G/D....
    Chokhtabujhe felte hobe,noile voy,noile voy jabe bere!

    G/D.....................C6add9....Am.................D/G.....
    Voy ekta chilo je chelebelar,mithey bolar geche....

    N.C....G/D....
    aj hariye!

    Interlude:G/D..Am..G/D..D/G...

    G/D..............................Am...............................D/G.....G/D....
    Hashi mane moja pele hashte chao,heshe jao,ajibon!

    G/D.............................Am.............................D/G.........G/D....
    ektu hashir jonyo ami kandi aaj,hashte chai,tomar moton.

    G/D..................................C6add9....Am......................D/G.....
    ektu hashbo tomar sathe bole dao,ami likhe jai ekta gaan,

    N.C...........G/D....
    ar ekta gaan.

    Interlude:G/D..Am..G/D..D/G...

    G/D...........................Am.....................D/G......G/D....
    Neel mane fele asha sokoler akasher onyo naam,

    G/D..............................Am..................D/G....G/D....
    neel mane valobashar govire lukono ekta rong,

    G/D................................C6add9......Am..................D/G.....
    Neel mane chena chena mukh amar,bajaye guitar,hordom,

    N.C.............G/D....
    Neel ekta naam.

    D/G.............G/D....
    Neel ekta naam.

    Interlude:G/D..Am..G/D..D/G...(Fade to end...)

    With Warm Regards,
    Arindam Ray.
    124,Sarat Ghosh Garden Road,Dhakuria,Kol-31.
    9830576926.

    +++++++++++++++++++++++++++++
     
  2. zhahme00

    zhahme00 New Member

    "neel" is a beautiful song. good tabbing bro.
     
  3. Arindam.Ray

    Arindam.Ray Undertaker

    Gee.....Thanks Pal.....Thanks a lot....hope you have enjoyed playing the song....

    With Warm Regards,
    Arindam Ray.
     
  4. moon

    moon New Member

    hello,arindan ray can you give the chords for prem maker of nachikete.

    premmaker of Nachiketea :
    Intro lead:





    se chilo tokhon unis,ami tokhon sottris

    preme porte lagena boyos,mone thake na unis-bis.

    mon mon mon mon to chailo,bibahito ami tate ki holo

    mon mon mon mon to chailo,bibahito ami tate ki holo

    onuvuti r badhoko ki eki thake ohornis? ha ha


    rambam rambabamba,

    rambam rambabamba

    rambam rambabamba

    rambam rambabamba


    se chilo tokhon first year ami ek cheler baba

    valobasar debota tokhon bosiye chilo thaba

    istri amar chilo anupoma,kokho khono ma

    mon amar chilo onugoto,kokhono harate chaye Sima

    tv dekte lagto valo,madhurikeo lagto bes -----

    sopne bou,madhuri mile mishe hoye jeto ekses

    sob purushi jemon hoy,amio alada noi

    sob purushi jemon hoy,amio alada noi

    sala sadist


    rambam rambabamba,

    rambam rambabamba

    rambam rambabamba

    rambam rambabamba
     
  5. Saptashaw

    Saptashaw PRO Tabber

    Gaan-ta aamro daarun laage.
     

Share This Page