Need Chords-Panangalla vishamulla from IRANDAM ULAGAM

Discussion in 'Tamil Guitar Tabs - Submit or Request' started by Annieston, Sep 25, 2013.

  1. Annieston

    Annieston New Member

  2. pranavbalu

    pranavbalu New Member

    Hi,
    This is nice song
    play G barre chord

    INTRO:
    Cm G

    (Cm)panangalla visha mulla
    (G)oru ootha kaathu killa
    (G)un kobam enna kolla

    (Fm)adi sondham irundhum bandham irundhum
    (Gm)paavi nenju(Cm) eriyum
    (Fm)oru paithiyam pudicha pournami nilavu
    (Gm)megatha kilichu(Cm) yeriyum


    ponnu(Cm) manasu oru dhinusu
    adhil(G) mirugamum theivamum vaazhum x 2
    enna(Cm) panthadum mirugam
    kooru pottu(G) koothadum theivam
    ava(Cm) nenapa purivathile
    oru(Gm) aambala pozhappu kaliyum
    nee (Cm)konjam pola mella sirikka
    aathadi(G) enna panni naa tholaikka
    paarvaiyal(Cm) irudhayam nenaikutuma
    paadhatha(Gm) imaigalil varudatuma
    nee sollum(G#) vaarthaiku vasikatuma
    kobatha(G) kondaadi rasikatuma

    second stanza with same chords
    thanks,
    Pranav

    -----------------------------
    Reply me if it is correct
     
    Super-Admin likes this.
  3. Annieston

    Annieston New Member

    Thank you Pranavbalu...
    I will try it .. Tnx alot...
    Can u tell me abt strumming??
     
  4. vs.suresh

    vs.suresh New Member

    The song is mostly on finger picking style...
     
  5. sathish lion

    sathish lion New Member

    suresh na plse help me song from movie kedibilla killadiranga song is deivangal ellam thotrey pogum plse chords
     
  6. vs.suresh

    vs.suresh New Member

    Super-Admin likes this.
  7. Annieston

    Annieston New Member

    Hi..
    I cannot find a perfect way of finger-picking..
    Can anyone help me pls??
    Tnx for ur concern!!!
     
  8. pranavbalu

    pranavbalu New Member

    Intro tab
    Capo 3rd fret
    Am - Cm
    E - G

    Am -----------------------E
    e----------0--0--1--0-------------------0-----0---1--0--------------------------------------------------
    B------1----1----------1------------0------0------------1--------------------------------------------
    G---2----------------------------1---------------------------------------------------------------
    D----------------------------------------------------------------------------------------------
    A-------------------------------------------------------------------------------------------------
    E---------------------------------------------------------------------------------------------------

    Am-------------------------- E
    e--------------------1--0-------------------------------------------------------------------------
    B-----------1----1---------1---------------0---0--------------------------------------------------
    G---------2---2-------------------------1----1-----------------------------------------------------
    D------2-----------------------------2-----------------------------------------------------------
    A-------------------------------------------------------------------------------------------------
    E---------------------------------------------------------------------------------------------------

    Check it out annieston
    Thanks,
    Pranav
     
  9. Annieston

    Annieston New Member

    tnx pranav..
    I'll try it out in morning nd let u know the progression
     
  10. pranavbalu

    pranavbalu New Member

  11. Annieston

    Annieston New Member

    Hi bro..
    I'v tried it...
    It is nice.... But I can suggest one modification, which make this even beauty
    rather to pick ( 6th) 1, we can hammer it frm 0-1.. sounds nice

    Am -----------------------E
    e----------0--0-0h1--0-------------------0-----0---0h1--0--------------------------------------------------
    B------1----1----------1------------0------0------------1--------------------------------------------
    G---2----------------------------1---------------------------------------------------------------
    D----------------------------------------------------------------------------------------------
    A-------------------------------------------------------------------------------------------------
    E---------------------------------------------------------------------------------------------------

    Am-------------------------- E
    e-------------------0h1--0-------------------------------------------------------------------------
    B-----------1----1---------1---------------0---0--------------------------------------------------
    G---------2---2-------------------------1----1-----------------------------------------------------
    D------2-----------------------------2-----------------------------------------------------------
    A-------------------------------------------------------------------------------------------------
    E---------------------------------------------------------------------------------------------------

    Let me know abt the change!!
     
  12. pranavbalu

    pranavbalu New Member

    your's sounds nice
     
  13. Annieston

    Annieston New Member

    :) keep posting pranav...
    we sill hv a lot to learn
     

Share This Page