National Anthem

Discussion in 'Pakistani Guitar Tabs - Submit or Request' started by J.J, Apr 10, 2005.

  1. J.J

    J.J The Guitar God

    Hey guyz this is my first post so plz tell me how it is so that i can improve. BTW i am only 14 years old!

    Part 1

    e-0-4-5-7-9-5-7
    12-12-7-9-9-9-5-4-5-2
    4-4-5-2-4-7-9-11-12-11-9-7-5-4
    7-7-5-4-5-5-4-2-0

    Part 2
    e---0-2-5-3-2------0
    b------------4

    e-4-4-5-2-4-7-9-11
    e-4-5-7-7-9-11-12-11-9-11-8-9
    e-7-7-5-4-5-5-4-2-0

    Now repeat part 1. How cool is that!
     
  2. Quadrophenia

    Quadrophenia New Member

    well done!! nice work buddy. maybe u shud try getting the whole thing with more than one string :)
    :rockon:
     
  3. BIG_EVIL

    BIG_EVIL Guitaring Machine

    nice work yaar
    :rockon:
     
  4. Aka Oz

    Aka Oz /\K/\ - Ozy

    well done it kool
     
  5. nadish

    nadish Active Member

    Well done??????????? 4 wat?????? Check this out....

    NOT TEBBED BY ME BUT SOME ADDITION HAS MADE BY ME


    -------------------------------------------------------------------|
    this the 1st part
    Pak Sarzameen Shaad Baab, Kishawar-e-Haseen Shaad Baad
    e -------------------------|---------------------------------------|
    b -------------------------|---10-10-------------------------------|
    g -------6-7-7/9--11--7--9-|---------9-9/11-----7\6-6--------------|
    d ----/7-------------------|-----------------------------9---------|
    a -------------------------|---------------------------------------|
    E -------------------------|---------------------------------------|

    Tu Nisnhan-e-Azm-e-Aalishan, Arz-e-Pakistan
    e -----------------------------------------------------------------|
    b -----------------------7--9--9/10--9-7---------------------------|
    g ---6---6-7-----6---9--------------------9--7--6------------------|
    d -------------9---------------------------------------------------|
    a -----------------------------------------------------------------|
    E -----------------------------------------------------------------|

    Markaz-e-Yaqeen Shaad Baad Pak Sarzameen Ka Nizaam
    e -------------------------|---------------------------------------|
    b -------------------------|---------------------------------------|
    g --9--7-6-7-6-------------|-----------7---------------------------|
    d --------------9--7-------|-/7--9----10--9--6/7-------------------|
    a -------------------------|---------------------------------------|
    E -------------------------|---------------------------------------|

    The 2nd part starts here!
    Qoowat-e-Akhuwwat-e-Awam Qaum, Mulk, Saltanat, Paaindah Taabindah Baad
    e -------------------------|----------------------7-8-7--5-7-4-5---|
    b ---------------7-9-9/7---|-------------9-10----------------------|
    g -----5--7-7/9------------|----7--9-10----------------------------|
    d --9----------------------|---------------------------------------|
    a -------------------------|---------------------------------------|
    E -------------------------|---------------------------------------|

    Shaad Baad Manzil-e-Muraad
    e -------------------------|---------------------------------------|
    b -------------------------|---------------------------------------|
    g ----9--7-6-7-6-----------|---------------------------------------|
    d -----------------9-6/7---|---------------------------------------|
    a -------------------------|---------------------------------------|
    E -------------------------|---------------------------------------|
     
  6. chcky

    chcky |||chUcky|||

    spot on man gud work
    :rockon:
     
  7. Taifi

    Taifi New Member

    nice yaar.good work
     
  8. ari03_ghosh

    ari03_ghosh New Member

    saale,indian guitar tabs mein pak national anthem...f*ck u pakis...
     

Share This Page