National Anthem

Discussion in 'Hindi Guitar Tabs - Submit or Request' started by raj_aryan, Mar 10, 2005.

  1. raj_aryan

    raj_aryan Moderator

    JANA GANA MANA...



    E|--------0--0--0--0--0--0-0-0-0-----0--1------------|
    B|--1--3---------------------------3-----------------|
    Jana gana manaadhinayaka ..jaya he


    E|---0--0--0-----------------------------------------|
    B|-------------3---3---3-0-3-1-----------------------
    Bharata bhagya vidhata..

    E|-------3-3---3---3----3-3-3-3----3-3/5-1----------|
    B|---1-1---------------------------------------------|
    Punjab O Sindhu Gujarata Maratha

    E|---1-1-1-----1-1-0---------1-0---------------------|
    B|-------------------3-----3-------------------------|
    Dravida Utkala Banga

    E|----0----0------0-0-------0-3-3-5---1-1------------|
    B|--------------3-----3------------------------------|
    VindhyaHimachala Yamuna Ganga

    E|---0--0--0----0--0---------------------------------|
    B|--------------------3----3-0-3-1-------------------|
    Uchchala Jaladhi taranga

    E|---------0--0-----0-0------1-----------------------|
    B|--1-3--------------------3-------------------------|
    Tava shubha name jage

    E|--0-1---3--3----3-1-0------1-0---------------------|
    B|-------------------------3-------------------------|
    Tava shubha ashish maange

    E|--1-0--0-0-----------------------------------------|
    B|-------------3-3---0-3-1---------------------------|
    Ga he tavajaya gatha

    E|--------3--3--3--3-------3-3--3-3-3--5-------------|
    B|--1-1------------------5---------------------------|
    Jana gana mangala dayakajaya he

    E|---1-1-1----1-1-----0---1-0------------------------|
    B|----------------------3----------------------------|
    Bharata bhagya vidhata

    E|---------8---7-5--7----5-3-5-----------------------|
    B|----5-8--------------------------------------------|
    Jaya he. jaya he. jaya he.

    E|----------------0-0------0-1-----------------------|
    B|------1-1--3-3---------3---------------------------|
    Jaya jaya jaya. jaya he.....
     
  2. good work raj,,,,really liked it.....keep up the good work;;;;;
    ROCK ON
     
  3. raj_aryan

    raj_aryan Moderator

    thnks dude
     
  4. jayswami

    jayswami Blue J

    review it and correct some of the mistakes that r there in it.. its correct 90%

    for eg

    E|---------8---7-5--7----5-3-5-----------------------|
    B|----5-8--------------------------------------------|
    Jaya he. jaya he. jaya he.

    I have never heard anyone sing Jaya He like that. And since what u have is not musicially dissodant , but just an alternate melody, i assume this is what u wanted..
    but u r wrong, if u r adding your creative imrovizations, then u should mention it.
    PPl are expecting tabs for the national anthem as is...

    so ion that case the above line should be

    E|-----8-7--8---7-5--7----5-3-5-----------------------|
    B|------------------------------------------------|
    Jaya he. jaya he. jaya he.

    there are numeruous such examples in your tab where if u play or sing according to your tabs, the melody sounds musical.. but it just aint jana gana mana.
     
  5. indianplaymate

    indianplaymate New Member

    good work raj, it was helpful.
     
  6. Gai

    Gai New Member

  7. jayswami

    jayswami Blue J

    raj aryan ,did u steal it or just tried it yourself and happened to make the same mistake? in anycase if it is already posted n IGT, there is no need to steal right?
    people can search for the older one. plus tabs steal math karo.. koi use nahi hai.. if u can tab well and god, if u cant learn to play from existing tabs, and one day u would be able to come up with your own tabs as well.
     
  8. Subhro

    Subhro Argentina lost :"(

    nxt time jus post da link. bettr tht way.
    coz thn ppl can chk out da comments in tht thrd which consists of corrections/suggestions/etc.
    hope atthanni does not cum acrss this post of urs *sigh*
     
  9. sandil

    sandil New Member

    does any1 have the chords for this ?
     
  10. __DiStUrBeD__

    __DiStUrBeD__ _(¯`·._ÇrãÇKhËäD_.·´¯)_

    He he..
    Whats up Raj
    Why no replies ?...
    Where the hell is atthanni..
    Cant wait to see his comments on this one..
     
  11. atthanii

    atthanii Theif Slayer

    and u MODS still tell me not to say anything after dis....u guyz said he might have stopped w/ da copying chords and tabs but i don't see how...and den u guyz were asking for proof..and i gave it to you guyz in da poems forum...now do u need anymore proof after dis thread...i think dis guy should be banned....
     
  12. jayswami

    jayswami Blue J

    lol
    let me check out his posts.. he seems to have colorful track record..

    but dudes.. everyone is a copy cat man.. ar rahman rd burman.. they have all shamelessly copied.. so i vote against a ban :)
     
  13. modern

    modern New Member

    saluting you
     
  14. atthanii

    atthanii Theif Slayer

    i don't see how they have copied word to word, and note to note....they have atleast attempted to give some desi spice to their music..whereas, our raj just shamelessly copied word to word and note to note... :mad:
     
  15. __DiStUrBeD__

    __DiStUrBeD__ _(¯`·._ÇrãÇKhËäD_.·´¯)_

    Lets see how this ends....

    Raj u should have known better yaar...wut u doing...
    U know people are suspicious....
     
  16. DrSaurabh

    DrSaurabh Wh@+s Up D0C

    whats stupid is copying from the same site hes posting it at .........to each his own.....
     
  17. kayB

    kayB New Member

    Thats a good work pal, keep up the patrionism :rockon:
     
  18. tejas_9889

    tejas_9889 New Member

    can any one help me out with the chords and the strumming pattern of the national anthem
     
  19. amit82cse

    amit82cse Silent observeR

    No copy, even from the given tabs..

    Here is home recording for the same song.

    Max out your volumn to listen.

    Please do comment.
     

    Attached Files:

  20. soumik1

    soumik1 New Member

    great yaar! keep it up
     

Share This Page