Narsimha - Humse tum dosti kar lo TABS

Discussion in 'Hindi Guitar Tabs - Submit or Request' started by iprakash, Apr 6, 2006.

  1. iprakash

    iprakash Proud IGTian

    Hello all, Again an old missing tab from IGT. I tabbed it today itself. Half in the morning, half in the evening and recorded in the night. Since its all on one string (for purity), you can play it at a higher pitch if you like.

    Please comment.

    Song : Hum se tum dosti kar lo (INTRO)
    Movie: Narsimha
    Music: Laxmikant Pyarelal


    E|------------------------------------------------------
    B|------------------------------------------------------
    G|------------------------------------------------------
    D|------------------------------------------------------
    A|---4/5--3-5-7-8-10-10-8----6/7--4--2--4-5-7-7-7--4----
    E|------------------------------------------------------

    E|------------------------------------------------------
    B|------------------------------------------------------
    G|------------------------------------------------------
    D|------------------------------------------------------
    A|---7-9-10--10-9-7--7-9-10--10-9-7--7h9-9-7------------
    E|------------------------------------------------------


    E|------------------------------------------------------
    B|------------------------------------------------------
    G|------------------------------------------------------
    D|------------------------------------------------------
    A|--5-7-8---10---8---7---5------------------------------
    E|------------------------------------------------------


    For the last line one can also use slides (as shown below).

    A|--5-7-8--8/10--7/8--6/7---5---------------------------
    E|------------------------------------------------------



    One can listen to the above played by me here.
     
  2. harjinder

    harjinder New Member

    link is broken for song. would you plz fix it.
    thnx
     

Share This Page