Nahin saamne tu - Taal Tabs

Discussion in 'Hindi Guitar Tabs - Submit or Request' started by anirban.d.das, Jun 19, 2005.

  1. anirban.d.das

    anirban.d.das New Member

    ----------------------------------------------------
    ----------------------------------------------------
    --0--4--7--4--5----------------------------------
    ----------------------------------------------------
    ----------------------------------------------------
    ----------------------------------------------------

    3 times



    -----------------------------------------------------
    -----------------------------------------------------
    -----------------------------------------------------
    -----------------------------------------------------
    --2--6--9--6--7-----------------------------------
    -----------------------------------------------------

    3 times




    sounds fantastic if i say so myself ;)

    comments and criticisms welcome.........
     
  2. anirban.d.das

    anirban.d.das New Member

    might as well throw this in----



    -------------------------------------------
    -------------------------------------------
    --5--5--5-----5--5--5-----4--7--7-----




    ---------------------------------------------
    ---------------------------------------------
    --7--9--10--9--7--5----------------------


    both above lines 2 times



    if ppl want i can tab out the rest
     
    vini likes this.
  3. vini

    vini Repeat Offender

    Yessss..anirban!! it sounds very nice....cant u tab the same portion in more strings and not just 1??... try..if u want :)

    gud job!!

    tahda!!
     
  4. anirban.d.das

    anirban.d.das New Member

    that sounds like advice i gave some1 recently
    and i forgot myself :eek::
     
  5. invincible2k

    invincible2k New Member

    wat abt the chords of that song do any have chords then post it thx in advance tc ba bye
     
  6. suyogst

    suyogst New Member

    I think this sounds more accurate

    E--3---3--3-3-2-5-5-7-8--7-5--3

    then repeat
     

Share This Page