Na koi umang hai : Kati Patang

Discussion in 'Hindi Guitar Tabs - Submit or Request' started by VisOrchestraGrp, Feb 9, 2008.

  1. VisOrchestraGrp

    VisOrchestraGrp New Member

    Req. BY - Tabs _ Be.

    Movie - Kati Patang
    Singer - Lata Mangeshkar

    ......Na....koi........umang.............hai
    G |-------1-(3-4)--4-3-1-----1----(1-3)----------------------
    D |--3--------------------3----------------------------------

    ......Na....koi..........tarang.............hai
    G |--------1-(3-4)--4-3-1------1----1-(1-3)-----------------
    D |--3----------------------3--------------------------------

    ......Meri......zindagi.....hai......kya
    B |-----------4-4-4-6----4----2-----------------------------
    G |--3-4--------------------------4-3-1---------------------

    ......Ek.....kati...........patang...........hai
    B |---------------------------2------------------------------
    G |--1-----1-1---------1-3-----4----3-----------------------
    D |--------------3-------------------------------------------

    Stanza -

    ......Aakash........se............giri...............main
    G |--3-4-3---------------------------3----------------------
    D |----------6----6-6-5-3----3-3-5-------5-3-1-------------

    ......Ek.......baar..........kat.......ke....aise
    B |------------------------------4---------------------------
    G |-------------1-1-----3-4-----------4-3-3-----------------
    D |--1-1----3------------------------------------------------

    ......Duniya......ne......phir......na......poocho
    B |--------2-----2------2------2----------2------------------
    G |--3-4------------------------------4-------4-3-1----------


    ......Duniya............ne......phir.........na......poocho
    B |---------4------------------6---------------2-------------
    G |--3-4------6-----6-----6----------6----4------4-3-1------

    ......Loota...........hai.....mujhko.....kaise
    G |--1-1------1----1-----1-3-4----4-3-3---------------------
    D |--------3--------------------------------------------------
     
  2. tabs_beggar

    tabs_beggar New Member

    excellent work :) soundzzzzzzzzz toooo GUD
    thanx :)
     
  3. VisOrchestraGrp

    VisOrchestraGrp New Member

    Hello everyone . The second stanza of this song is slightly different from
    first one thats why I am posting it again .

    Req. BY - Tabs _ Be.

    Movie - Kati Patang
    Singer - Lata Mangeshkar

    Note - Bracket ( ) shows slide .

    ......Na....koi............umang..............hai
    G |-------1-(3-4)-----4-3-1-----1------(1-3)--------------------
    D |--3-------------------------3-----------------------------------

    ......Na....koi............tarang..............hai
    G |--------1-(3-4)----4-3-1------1-----1-(1-3)------------------
    D |--3-------------------------3-----------------------------------

    ......Meri......zindagi.....hai......kya
    B |-----------4-4-4-6----4------2-------------------------------
    G |--3-4-----------------------------4-3-1------------------------

    ......Ek.....kati...........patang...........hai
    B |---------------------------2----------------------------------
    G |--1-----1-1---------1-3-----4------3-------------------------
    D |--------------3-----------------------------------------------

    Stanza -

    ......Aakash........se............giri............ ...main
    G |--3-4-3-----------------------------3------------------------
    D |----------6-----6-6-5-3----3-3-5----------5-3-1-------------

    ......Ek.......baar..........kat.......ke....aise
    B |---------------------------------4---------------------------
    G |-------------1-1------3-4------------4-3-3------------------
    D |--1-1----3---------------------------------------------------

    ......Duniya......ne......phir......na......poocho
    B |--------2-----2------2--------2-----------2------------------
    G |--3-4---------------------------------4-------4-3-1----------


    ......Duniya............ne......phir.........na... ...poocho
    B |---------4---------------------6-----------------2-------------
    G |--3-4------6------6-------6----------6------4------4-3-1----

    ......Loota...........hai.....mujhko.....kaise
    G |--1-1------1----1-----1-3-4------4-3-3-----------------------
    D |--------3-----------------------------------------------------

    STANZA 2 :-

    ......Lag.....ke.........gale........se......apne
    G |--3-4----3---------------------------------3--------------
    D |-------------6-----6-6-5-----3------3-5------5-3-1------

    ......Babul...........ke....main....na.........roi
    B |----------------------------------3------------------------
    G |----------1-----1-----3-------4----------4-3-3------------
    D |--1-1-3----------------------------------------------------

    ......Doli..........uthi....yu.....jaise
    B |--------2-----2-2----2---------2------------------------
    G |--3-4----------------------4-------4-3-1----------------

    ......Doli................uthi......yu............jaise
    B |--------4-------------------6---------------2----------------
    G |--3-4-----6------6-6----------6-------4-------4-3-1-------

    ......Arthi...............uthi....ho....koi
    G |--1-1------1------1-3----4----4-3-3------------------------
    D |--------3-----------------------------------------------------
     
  4. makdee

    makdee New Member

    Can you please post the piano verson of that song .
     

Share This Page