MY :: tune mujhe pehchana nahi tabs..(raju Uncle)

Discussion in 'Hindi Guitar Tabs - Submit or Request' started by abhimanjrekar, Dec 8, 2005.

  1. abhimanjrekar

    abhimanjrekar ----> Zhol-Man<----

    Tune mujhe pehchana nahi :: raju chacha

    INTRO MUSIC ::

    e---0------------0-----------------------------
    b-----3---1-0-----3------0-1-3-0------------
    g-2------------2--------2------------0--2------
    d----------------------------------------2--------

    SONG :

    tune muje pehchan nahi
    e------------------------------------------
    b-1-0--1-0-------1-3-0-0-0------------
    g-----2------2-----------------------------

    jana main koi anjan nahi
    e------------------------------------------
    b-0------0-----0-1------------------------
    g---2-0---2-0------2-2-2-0--------------
    d------------------------------3-------------

    ashiq hu main tere pyar ka
    e--------1-0------------------------------
    b-1-1-1-----3-3-3-0------------------
    g-----------------------2-----------------

    dewna hu main dewana nahi
    e---0-------------------------------------
    b-3--3-3-3----1-1-1-1--0-0-----------
    g--------------------------------2-------

    MUSIC :
    e---0----------0-------------------------
    b----3---1-0----3-----0-1-3-0---------
    g-2----------2-------2------------0--2---
    d-------------------------------------2-----

    PARA ::

    nam batake tu kehti hain
    e-0-0-0-0---0-2------------------------
    b-------------------4-4-4-4--0-----------

    tu wo nahi koi aur hain
    e-0-0-0-0---0-2-----------------------
    b-----------------------4-4-4-4--0---

    tune di thi ye anguthi
    e-----------------------------------------
    b-0-----3---3-3--2-2-------------------
    g---2-0-----------------2--------------

    ye kehti hain..tu hain zhooti
    e-----------------------------------------
    b-----0-3-1----0---5-3----------------
    g-2-2-------------2----------------------

    hmmmm...hm.......
    e---0---------0--------------------------
    b----3---1-0----3----0-1-3-0----------
    g-2----------2------2------------0--2---
    d------------------------------------2-----


    refer my recording also..ul get it better....

    http://www.megaupload.com/?d=2XF15U0C

    enjoy playing.... :beer:
     
  2. Arka

    Arka New Member

    I'm gonna try it right now if it works i'll be grateful to you...........
     
  3. abhimanjrekar

    abhimanjrekar ----> Zhol-Man<----

    it l work don worry..hear the recordin also, u l get it clear in case u get confused...
     
  4. faiqrock

    faiqrock XaiQ

    Abhi nice yaar:)
     
  5. rizaaj

    rizaaj Forum Leader

    hey.. abhi.. gimme the chords if you got dude..

    i gotta admit that this songs cool.. i hate songs with such lyrics but i love this one .. dunno why
     
  6. abhimanjrekar

    abhimanjrekar ----> Zhol-Man<----

    Am G,
    tune mujhe....

    E F,
    jaana main....

    Am G
    aashiq hu....

    G F E
    deewana hu main,,,,,,nahi...

    Am G F
    hmmm...
     

Share This Page