1. Priyanshu2606

    Priyanshu2606 New Member

    poets of the fall - late goodbye (intro)

    E---------7--------5----------5--------3-----------7--------5--
    B-------0---0---------------0---0----------------0---0-------
    G-----7-------7-6---------5-------5-4-----4/7-7--------7-6---------
    D--------------------------------------------------------
    A--------------------------------------------------------
    E--0-------------------0----------------------------------



    E---------5--------3--------0---0---0----0---------5---5----5---5----
    B-------0---0--------------5-5-7-7-8-8-7--7------5-5-5-5--5-5-5------------
    G-----5-------5-4---------0---0---0---0----0----5---5----5----5------
    D----------------------------------------------------------
    A----------------------------------------------------------
    E--0--------------------0----------------------0-------------



    E-----5---5---5-----------------------------------------------
    B----7-7-7-7-7--------------------------------------------------
    G---5---5---5-------------------------------------------------
    D----------------------------------------------------------
    A----------------------------------------------------------
    E-0---------------------------------------------------------






    listen song for timings
    its quite easy u will get a hang of it within min....
     
  2. Priyanshu2606

    Priyanshu2606 New Member

    PAPA ROACH - LAST RESORT
    (played in b/w the song on electric with distortion)


    E----------------------------------------------------------
    B----------------------------------------------------------
    G----------------------------------------------------------
    D----------------9-------------------------9-----------------
    A----7--10-9-10----10-9-10-------10-9-10---10-9-10-------------------------------------
    E------------------------------10----------------------------




    E----------------------------------------------------------
    B----------------------------------------------------------
    G----------------------------------------------------------
    D-------------9---------------------------------------------
    A----10-9-10---10-9-10-------------------------------------
    E--7--------------------------------------------------------


    play the whole part with speed
    listen the song for timings.....
    (sounds perfect to me)
     

Share This Page