my aadat ( need review )

Discussion in 'IGT Soundtrack - Your Band, Your Gig, Your Music' started by max_payne16, Oct 28, 2005.

  1. max_payne16

    max_payne16 New Member

    hey peeps
    ths is my first post on this forum
    here s the song i have covered

    http://www.soundclick.com/nikhiljalholic
    OR
    http://rapidshare.de/files/6884993/aadat_nikhil.mp3.html

    plz send me a reply

    sry for not including solos ( i was having headfones on my head while playing :p)
    but will do it soon

    thr s a prblem in end part of "chahat aisi hai ye teri...OOOOOOoooOOooo"
    thts an sound editor problem (if u notice)

    plz suggest me a nice microfone
    nd if u want to share ur music wid me u can add me in yaho mesenger
    [SNIP]we can play thr live :p

    hope u reply
     
  2. faiqrock

    faiqrock XaiQ

    jee bhai sahab....yaar Najaney kab sey...wala Intro joh hai na
    Woh Wrong hai:(......caz u used just 664 664
    and the Solo was wrong
    here it is
    e|-------4----7--4--------4----7--4----------2------4------5---------|
    B|---5-----5----------5-----5------------2-----2------2------2-------|
    G|-6---6------------6---6--------------2---2-----2------2------2-----|
    D|-------------------------------------------------------------------|
    A|-------------------------------------------------------------------|
    E|-------------------------------------------------------------------|

    e|-------4----7--4--------4----7--4----------2-------2---------------|
    B|---5-----5----------5-----5------------2-----------2---------------|
    G|-6---6------------6---6--------------2---2----2----2---------------|
    D|-------------------------------------------------------------------|
    A|-------------------------------------------------------------------|
    E|-------------------------------------------------------------------|

    ok...and ur vocals are nice and Ur chord were V Nice....
    ok but Concentrate on Tabs..or solo wht ever..
    ok
    bye tc
     
  3. har1s

    har1s <b>Untitled</b>

    faiq...ur najanay kabse is wrong also.... in fact i think u have posted the second lead of the song...this is surely not the intro....!!!!!!
     
  4. slipknot_555

    slipknot_555 RuHH..

    Tabbed bY My FRd!! Orange Bhai... posted many times but for newbies!

    =====================================================================

    Tabbed By : Orange Guitar

    =====================================================================

    (Now here is the full version of "Aadat". It is on standard tuning)

    =====================================================================

    Here goes the intro :

    This is the first arpeggio which is played by pick.

    e|-------------------------------------------------------------------|
    B|----------4------4------4------4-----------------------------------|
    G|-----6------6------6------6------6---------------------------------|
    D|---6---6------6------6------6------6-------------------------------|
    A|-4-----------------------------------------------------------------|
    E|-------------------------------------------------------------------|

    Now the second arpeggio comes in after arpeggio 1.

    e|-------------------------------------------------------------------|
    B|----------4------4------4------4-----------------------------------|
    G|-----6------6------6------6------6---------------------------------|
    D|---7---7------7------7------7------7-------------------------------|
    A|-4-----------------------------------------------------------------|
    E|-------------------------------------------------------------------|

    Listen to the song to figure out the pattern.

    ======================================================================

    Now here goes the strumming after the intro. " ; " indicates
    that this part should be repeated.

    e|------4---------4---------;--4---------4--------;------------------|
    B|------4---------5---------;--4---------5--------;------------------|
    G|------6--(2x)---6---(2x)--;--6--(2x)---6--(2x)--;------------------|
    D|------6---------6---------;--7---------7--------;------------------|
    A|------4---------4---------;--4---------4--------;------------------|
    E|-------------------------------------------------------------------|

    ======================================================================

    During strumming lead guitar plays this.

    e|----------0--------------------0-----------------0----------0------|
    B|-2--0--2-----2--0-----2--0--2-----2--0------0-------0-------0------|
    G|------------------------------------------2---2--------2----2------|
    D|-------------------------------------------------------------------|
    A|-------------------------------------------------------------------|
    E|-------------------------------------------------------------------|


    Strumming given above carries on till this part ends.

    ======================================================================

    Then the rythem guitar plays this with chorus.
    (Figure out the timing by yourself)

    e|------4-----2-----0-----2-----;-;-;---------------------------------|
    B|------5-----4-----2-----4-----;-;-;---------------------------------|
    G|------6-----4-----2-----4-----;-;-;---------------------------------|
    D|------6-----4-----2-----4-----;-;-;---------------------------------|
    A|------4-----2-----0-----2-----;-;-;---------------------------------|
    E|-------------------------------------------------------------------|

    ======================================================================

    The lead guitar solo.

    e|-------4----7--4--------4----7--4----------2------4------5---------|
    B|---5-----5----------5-----5------------2-----2------2------2-------|
    G|-6---6------------6---6--------------2---2-----2------2------2-----|
    D|-------------------------------------------------------------------|
    A|-------------------------------------------------------------------|
    E|-------------------------------------------------------------------|

    e|-------4----7--4--------4----7--4----------2-------2---------------|
    B|---5-----5----------5-----5------------2-----------2---------------|
    G|-6---6------------6---6--------------2---2----2----2---------------|
    D|-------------------------------------------------------------------|
    A|-------------------------------------------------------------------|
    E|-------------------------------------------------------------------|

    Behind the solo, acoustic strumming carries on.

    ======================================================================

    Now again the same rythem part continues.

    ======================================================================

    Here is the famous solo.

    e|--4-5-4-4-4----4---------------------------------------------------|
    B|--------------------7—5-4-4-4---4-5-4-2-5---5h7p5-4----------------|

    e|--4-5-4-4-7-9-7-9s11-9—7-7---7—5h7-5—4p2-------------------------|

    ======================================================================

    During the solo, acoustic guitar plays these pluck strums.

    e|---------4-------------2-------------0-------------2----------;----|
    b|-----5---5---------4---4---------2---2---------4---4----------;----|
    g|---6-----6-------4-----4-------2-----2-------4-----4----------;----|
    d|-6-------6-----4-------4-----2-------2-----4-------4----------;----|
    a|---------4-------------2-------------0-------------2----------;----|
    e|-------------------------------------------------------------------|

    ======================================================================

    Between the "Aaaaa Aaaa aaaa" part, lead guitar plays these power
    chords fastly.

    e|-------------------------------------------------------------------|
    b|-------------------------------------------------------------------|
    g|-6------------2------------4---------------------------------------|
    D|-6--(many x)- 2--(many x)--4--(many x)-----------------------------|
    a|-4------------0------------2---------------------------------------|
    e|-------------------------------------------------------------------|

    Rythem guitar also contiues its chords.

    ======================================================================


    Now some "Aaaaaa Aaaaaa Aaaaa" with rythem chords.

    ======================================================================

    The ending is like this.

    e|---------4-------------2-------------0-------------2---------------|
    b|-----5---5---------4---4---------2---2---------4---4---------------|
    g|---6-----6-------4-----4-------2-----2-------4-----4---------------|
    d|-6-------6-----4-------4-----2-------2-----4-------4---------------|
    a|---------4-------------2-------------0-------------2---------------|
    e|-------------------------------------------------------------------|

    ======================================================================

    Note: The lead parts (not distorted chords) are my friend's work. He
    gave me the tabs. Comments are most welcome.

    ======================================================================

    ORANGE - ORANGE - ORANGE - ORANGE - ORANGE - ORANGE - ORANGE -ORANGE

    =====================================================================
     
  5. max_payne16

    max_payne16 New Member

    thnx for everything guys
    i'll definitely improve on watever u have told me
    and post my next recording
     
  6. faiqrock

    faiqrock XaiQ

    yes sorry i did't tell Haris....tht tht was Second Lead...:p:p
    lol
     
  7. max_payne16

    max_payne16 New Member

    yeah
    and one more thing
    i really think tht thr s no mistake in najane kab se part
    it s jus as it is in tht song mann
    gimme jus tht part of ur recording plz
     
  8. wiqqi

    wiqqi New Member

    nice
    try these chords, they are when bikhra hoon starts in aadat
    hope u know that version

    446644
    446654

    447644
    447654

    same pattern used with the actual song
    like the 446644 and then 446654 the pattern twice
    and then try the other one
    447644 and 447654
     
  9. max_payne16

    max_payne16 New Member

    dude thnx for the suggestion
    well i dint get th thing u r tellin me
    i mean.... i ve used 447644 and 447654 in my song
    is it not audible clearly??
    maybe coz i had to put the PC mic inside my guitar ( in the f hole :p)
    it turned out to be a lil distorted
    if u really telling me sumtin diferent.......thn i'de like to meet u on a messenger to show me wat r u tellin exactly
    nikhil12342001@yahoo
    and
    thespeeder@gmail.com (this is most preferred coz...googletalk gives the best voice chat service)
     
  10. faiqrock

    faiqrock XaiQ

    Yaar x46644....x46654...and all means this

    e|------4---------4---------;--4---------4--------;------------------|
    B|------4---------5---------;--4---------5--------;------------------|
    G|------6--(2x)--6---(2x)-;--6--(2x)---6--(2x)--;------------------|
    D|------6---------6---------;--7---------7--------;------------------|
    A|------4---------4---------;--4---------4--------;------------------|
    E|-------------------------------------------------------------------|

    there r the perfect chords..try
    ok thnx bye
    |Faiq|
     

Share This Page