Mujhse juda hokar tumhe : Hum aapke hain kaun ?

Discussion in 'Hindi Guitar Tabs - Submit or Request' started by VisOrchestraGrp, Nov 29, 2007.

  1. VisOrchestraGrp

    VisOrchestraGrp New Member

    REQ. By - ERNAV
    Movie - Hum aapke hain kaun ?
    Singer - Lata Mangeshkar & S. P. Balasubramaniyam

    Mujhse juda hokar tumhe door jaana hai
    B |---------4-------------------------2-1------1----------------------
    G |--5-5------6-5--6-5-3--3-3--3---------3------3------------------
    D |-----------------------------------------------------6--------------

    Mujhse juda hokar tumhe door jaana hai
    B |---------4-------------------------2-1------1----------------------
    G |--5-5------6-5--6-5-3--3-3--3---------3------3------------------
    D |-----------------------------------------------------6--------------

    Pal bhar ki judaai phir laut aana hai
    D |--6-5-6--6-3-3-6--6-5-6--6-3-3----------------------------------

    Saathiya sang rahega tera pyar
    G |-----------5-------5---------3------------------------------------
    D |--3-5-6-------6-------6-6-------5-6------------------------------

    Saathiya rang laayega intzaar
    G |-------------3--------3-------------------------------------------
    D |--------5-------5--------5-6-5-3----------------------------------
    A |--7-8-------------------------------------------------------------

    FILLER :-
    D |------3-6-5---------------------
    A |--3------------------------------ C CHORDS

    D |------3-5-5---------------------
    A |--3------------------------------ Fm CHORDS

    Tumse juda hokar mujhe door jaana hai
    B |---------4-------------------------2-1------1----------------------
    G |--5-5------6-5--6-5-3--3-3--3---------3------3------------------
    D |-----------------------------------------------------6--------------

    Tumse juda hokar mujhe door jaana hai
    B |---------4-------------------------2-1------1----------------------
    G |--5-5------6-5--6-5-3--3-3--3---------3------3------------------
    D |-----------------------------------------------------6--------------

    Pal bhar ki judaai phir laut aana hai
    D |--6-5-6--6-3-3-6--6-5-6--6-3-3----------------------------------

    Saathiya sang rahega tera pyar
    G |-----------5-------5---------3------------------------------------
    D |--3-5-6-------6-------6-6-------5-6------------------------------

    Saathiya rang laayega intzaar
    G |-------------3--------3-------------------------------------------
    D |--------5-------5-------5-6-5-3----------------------------------
    A |--7-8-------------------------------------------------------------

    FILLER :-
    D |------3-6-5---------------------
    A |--3------------------------------ C CHORDS

    D |------3-5-5---------------------
    A |--3------------------------------ Fm CHORDS

    STANZA :-

    Main hoon teri sajni saajan hai tu mera
    G |--------3-5-3---------------3-5-3----------------------------------------
    D |--6-6-----------6-6--6-6------------6-5----------------------------------

    Tu baandh kar aaya mere pyar ka sehra
    D |--5-5-3-2-------5--5-5-6-6-5--5-3--------------------------------------
    A |------------3------------------------------------------------------------

    FILLER :-
    D |------3-6-5---------------------
    A |--3------------------------------ C CHORDS

    D |------3-5-5---------------------
    A |--3------------------------------ Fm CHORDS

    Chehrae se ab teri hatti nahi ankhiyan
    G |--------3-5-3---------------3-5-3----------------------------------------
    D |--6-6-----------6-6--6-6------------6-5----------------------------------

    Tere naam le le kar chede mujhe sakhiyaan
    D |--5-5-3-2-------5--5-5-6-6-5--5-3--------------------------------------
    A |-------------3------------------------------------------------------------

    Sakhiyon se ab mujhko peecha chudana hai
    B |------------4----------------------2--------------------------------------
    G |--5-5-5-------6-5--6-5-3--3-3-------5-3--5-3-1-3-5---------------------

    Sakhiyon se ab mujhko peecha chudana hai
    B |------------4----------------------2--------------------------------------
    G |--5-5-5-------6-5--6-5-3--3-3-------5-3--5-3----------------------------
    D |----------------------------------------------------6------------------------
     
  2. arniehawk

    arniehawk New Member

    Super tabbing
    :)
    some1 plz provide d chords
     
  3. komal29

    komal29 New Member

    what about the chords n whats the scale of this song
     
  4. roentgen

    roentgen Member

    Mujh(Fm)se Juda Ho(Bbm)kar Tumhe (Eb)Door Jaana (Fm)Hai
    Pal(Fm)bhar Ki Judaa(C)i... Phir (Fm)Laut Aana Hai
    Saathi(C#)yaaaa.... (Fm)Sang Rahega Tera (G#)Pyaaaaa(C#)aar
    Saathi(C)yaaaa(Eb)aaa (Gm)Rang Laye(Cm)ga Inte(Fm)zaar..!

    Main (G#)Hoon Teri Saj(C#)ni Saa(G#)jan Hai Tu Me(Eb)ra
    Tu (C)Baandh Ke Aaya Mere (Fm)Pyar Ka Sehra
    Cheh(G#)re Se Ab Te(C#)re Hat(G#)ti Nahin Ankhi(Eb)yan
    Tera (C)Naam Le - Lekar Chhe(Fm)de Mujhe Sakhiyan
    Sakhi(Fm)yon Se Ab Mujh(Bbm)ko Pee(Eb)chha Chhudana (Fm)Hai
    Pal(Fm)bhar Ki Judaa(C)i... Phir (Fm)Laut Aana Hai
    Saathi(C#)yaaaa.... (Fm)Sang Rahega Tera (G#)Pyaaaaa(C#)aar
    Saathi(C)yaaaa(Eb)aaa (Gm)Rang Laye(Cm)ga Inte(Fm)zaar..!

    Rajesh :music:
     
  5. komal29

    komal29 New Member

    Thanks Rajesh..as always for the immediate reply..

    Komal :)
     

Share This Page