Most Awaited:Gangster(2006): Lamha Lamha (Chords + Tabs) Submited

Discussion in 'Hindi Guitar Tabs - Submit or Request' started by sumantmodak, Apr 14, 2006.

  1. sumantmodak

    sumantmodak Musically Yours !!!

    Hey Guays,
    Sumant Here Again, Thanks for showing such a great response to my work. i heared IGItians wanting this song so i tabbed it. the chords are pretty simple but the lead it pretty beautiful very nice to play !!!!

    This Is My 7th Lastest Song Posting in just 3 days: Many More To Come
    Thank You All !!!! !!!! :)

    I just tabbed Fanaa Song: you can visit that too!
    Fanaa: Chand Sifarish Hai Karta (Subhaan Allah) :- Its Really Beautiful !!!! :)
    http://www.indianguitartabs.com/showthread.php?t=20845

    Rep My Work If You Like It & Find It Useful !!!! !!!! :)
    Musically Yours,
    Sumant A Modak !!!! !!!! :)

    Song: Lamha Lamha
    Movie: Gangster(2006)
    Tabbed By, Sumant Modak

    Intro Music On Flute: Repeat 2 Times
    |-----------0----------------------------------------------------------------
    |-1-0-1-3-----1-0-----------------------------------------------------------
    |-------------------2-----2--0-----------------------------------------------
    |----------------------3-----------------------------------------------------

    lamha lamha doori yun pighalti hai
    |---------------------------------------------------------------------------
    |-1-p0----------------------------------------------------------------------
    |-------0-0-0-0-0-0-0-----2-2----------------------------------------------
    |-----------------------3----------------------------------------------------

    jaane kis aag mein yeh shabnam jalti hai
    |--------------------------------------------------------------------------
    |--------------------------------------------------------------------------
    |-2-2-2-h3-2-0-----------0--0---------------------------------------------
    |----------------3-2--0----------------------------------------------------

    ho lamha lamha doori yun pighalti hai
    |--------------------------------------------------------------------------
    |-1-p0---------------------------------------------------------------------
    |-------0-0-0-0-0-0-0-----2-2---------------------------------------------
    |-----------------------3--------------------------------------------------

    jaane kis aag mein yeh shabnam jalti hai
    |--------------------------------------------------------------------------
    |--------------------------------------------------------------------------
    |-2-2-2-h3-2-0-----------0--0---------------------------------------------
    |----------------3-2--0----------------------------------------------------

    khwaahishon ki shaam dhalti hain - 2
    |-0-0-0-0-3-0-------0------------------------------------------------------
    |--------------3--1-----3--------------------------------------------------
    |---------------------------------------------------------------------------
    |---------------------------------------------------------------------------

    jaane kis aag mein yeh shabnam jalti hai
    |---------------------------------------------------------------------------
    |---------------------------------------------------------------------------
    |-2-2-2-h3-2-0-----------0--0----------------------------------------------
    |----------------3-2--0-----------------------------------------------------

    la la la ... (Same As Intro Music, its beautiful play it sevral times) !!!! !!!!
    |-----------0--------------------------------------------------------------
    |-1-0-1-3-----1-0---------------------------------------------------------
    |-------------------2-----2--0---------------------------------------------
    |----------------------3---------------------------------------------------

    :)
    Beautiful Middle Music (Something Similar To Bheegi Bheegi Song of same movie) : 2 times
    it was tough to get exactly right but i hope i did good job!
    |-----8-8-7-8-7-8-10-8-7-h10-- 5-7-8-7-5h10- 5----- 5-7-8-7-5-5-----------
    |--5-------------------------------------------------------------------------
    :)



    Stanza 1

    teri aankhen dikhati hai
    |-----1-1-0-----------------------------------------------------------------
    |---------------3-3-3-1-----------------------------------------------------
    |-0-------------------------------------------------------------------------
    |---------------------------------------------------------------------------

    hamein sapanen sitaaron ke
    |-----3-3-1--------0-1------------------------------------------------------
    |-------------3-3------------------------------------------------------------
    |-0--------------------------------------------------------------------------
    |----------------------------------------------------------------------------

    ho ho ho
    |---------------------------------------------------------------------------
    |--3-1---------------------------------------------------------------------
    |---------------------------------------------------------------------------
    |---------------------------------------------------------------------------

    tere hothon pe likha hai
    |-----1-1-0-----------------------------------------------------------------
    |---------------3-3-3-1-----------------------------------------------------
    |-0-------------------------------------------------------------------------
    |---------------------------------------------------------------------------

    jo tum bole ishaaron mein
    |-----3-3-1--------0-1------------------------------------------------------
    |-------------3-3------------------------------------------------------------
    |-0--------------------------------------------------------------------------
    |----------------------------------------------------------------------------

    ho ho ho
    |---------------------------------------------------------------------------
    |--3-1---------------------------------------------------------------------
    |---------------------------------------------------------------------------
    |---------------------------------------------------------------------------

    khwaabon ke karwaan mein raat chalti hai
    |---------------------------------------------------------------------------
    |-1-p0----------------------------------------------------------------------
    |-------0-0-0-0-0-0-0-----2-2----------------------------------------------
    |-----------------------3----------------------------------------------------

    jaane kis aag mein yeh shabnam jalti hain
    |---------------------------------------------------------------------------
    |---------------------------------------------------------------------------
    |-2-2-2-h3-2-0-----------0--0----------------------------------------------
    |----------------3-2--0-----------------------------------------------------

    la la la... (Music Again)
    |-----------0----------------------------------------------------------------
    |-1-0-1-3-----1-0-----------------------------------------------------------
    |-------------------2-----2--0----------------------------------------------
    |----------------------3-----------------------------------------------------


    Stanza 2 (Play Exactly Like Stanza 1)
    behakti shaam aayi hai
    tujhe lekar ke baahon mein
    tujhe chhu loon ke rakhu main
    chhupakar ke nigaahon mein
    sharmati ithlaati hai machalti hai
    jaane kis aag mein yeh shabnam jalti hain
    ho lamha lamha doori yun pighalti hai
    jaane kis aag mein yeh shabnam jalti hai
    khwaahishon ki shaam dhalti hain - 2
    jaane kis aag mein yeh shabnam jalti hai
    la la la ...




    Chords For The Song Lamha Lamha Doori Yun

    Pretty Simple Baiscally just variation of C,Am,F
    you can give more variation by using G where needed !!!! !!!!

    C................................................Am
    lamha lamha doori yun pighalti hai
    F..................................................C/G ............... (C is more appropriate)
    jaane kis aag mein yeh shabnam jalti hai
    C................................................Am
    ho lamha lamha doori yun pighalti hai
    F..................................................C/G ............... (C is more appropriate)
    jaane kis aag mein yeh shabnam jalti hai
    C................................................Am
    khwaahishon ki shaam dhalti hain - 2
    F..................................................C/G ............... (C is more appropriate)
    jaane kis aag mein yeh shabnam jalti hai
    C..............Am...........F...............C
    la la la ...la la la ..............la la la


    C................................Am
    teri aankhen dikhati hai
    F................................G
    hamein sapanen sitaaron ke
    C
    ho ho ho

    C................................Am
    tere hothon pe likha hai
    F................................G
    jo tum bole ishaaron mein
    C
    ho ho ho
    C................................................Am
    khwaabon ke karwaan mein raat chalti hai
    F..................................................C/G ............... (C is more appropriate)
    jaane kis aag mein yeh shabnam jalti hain
    C..............Am...........F...............C
    la la la...

    Stanza 2 (Play Exactly Like Stanza 1) !!!! !!!! :)

    behakti shaam aayi hai
    tujhe lekar ke baahon mein
    tujhe chhu loon ke rakhu main
    chhupakar ke nigaahon mein
    sharmati ithlaati hai machalti hai
    jaane kis aag mein yeh shabnam jalti hain
    ho lamha lamha doori yun pighalti hai
    jaane kis aag mein yeh shabnam jalti hai
    khwaahishon ki shaam dhalti hain - 2
    jaane kis aag mein yeh shabnam jalti hai
    la la la ...

    Comments Suggestions , Corrections & Criticisms are welcome with open heart !!!! !!!! :)
    Thanks for taking time in reading my post. i hope you will find my work useful
    waiting for your REPS HA HA HA :))
     
    Super-Admin likes this.
  2. faraz khan

    faraz khan Fkay'zzz .......GoNe MaD!

    cute pic !
    Ure gonna greatly!
     
  3. electrickamie

    electrickamie New Member

    great work

    hey dude u did a plendid job after that "najane koi" work of urs........ur work is appreciated..hey i have a request if u cud find time then plz send the chords for "ya ali" from the same movie....
    newz keep up the good work.....
     
  4. electrickamie

    electrickamie New Member

    hey another request..........."kaash" from home delivery.......sung by shaan..thx
     
  5. urs_nir

    urs_nir New Member

    awsome man..the song is too good...abhijeet rocks! and ur chords are bingo!

    gr8 work!
     
  6. vishal01

    vishal01 New Member

    kool work man......!!!!!!!!!!!!!!!!!!!!!!!!!!!!!!!!!!!!!
     
  7. vintage

    vintage New Member

    Absolutelty fantastic .. could you please post the strumming? I love your posts :)
     
  8. dbgt400

    dbgt400 New Member

    too good man!!! these r the most aaccurate chords ever!!!!!!!! nice job
     
  9. tejash_p_shah

    tejash_p_shah New Member

    Great job

    Hi ,

    You are doing really great job, keep it up.. these guitar tabs posted by u are really helpful to all
     
  10. akki_rocx

    akki_rocx New Member

    hai i am confused..

    hai plzz tell mee how i can understand.. ur .. tabs..
    plzz let mee know what does.. that 0 .. or 7 means.....
    which string i have to select......
     
  11. parashbro

    parashbro New Member

    How about this:

    C................................Am
    teri aankhen dikhati hai
    Dm................................G
    hamein sapanen sitaaron ke
     
  12. ronit_vinit

    ronit_vinit New Member

    Well Done Man
     
  13. rajivrajput007

    rajivrajput007 New Member

    good work
    keep it up
    its rajput
     
  14. chetansharma307

    chetansharma307 New Member

    hello every1

    hi guys im a new to this commmunity and also to guitar ,hope u all take good care of me.
     
  15. rajarchit2005

    rajarchit2005 New Member

    cool..........
     
  16. akashRoxx

    akashRoxx New Member

    zzzzzzzzzzzzzzzzzzz

    can any one give me chords for yaali????????????????
     
  17. blue_sea687

    blue_sea687 New Member

    i used to play this song when i started playing guitar.. :)
     
  18. abhaitr75

    abhaitr75 New Member


    This sounds much better, nice correction...
     

Share This Page