Monsoon fun-piya basanti re-pro tabs...!!!

Discussion in 'Hindi Guitar Tabs - Submit or Request' started by ejazzz0801, Jun 8, 2009.

  1. ejazzz0801

    ejazzz0801 New Member

    This song is dedicated to the most lovable girl in this world...
    loads of love K.....

    i need nothing but blessings if u like my work...
    play this song for ur loved ones n make this monsoon come alive for them...


    piya basanti re...(link)
    e----------------------------
    B---------7h9 7^-------7977
    G-9999-------------------------9
    D----------------------------
    A----------------------------
    E----------------------------

    kahe sataye aajaa
    e---------------------------
    B---------7----------------
    G-9999------------98--8 8h9
    D---------------------------
    A---------------------------
    E---------------------------

    jane kya jaado kiya..(same for-pyaar ki dhun ched diya)
    e--------------------
    B---------------------
    G-8 8h9 8-----------
    D-----------976 6h7 9
    A--------------------
    E---------------------

    ho...and continue with-kahe sataye aajaa
    e--------------
    B-7977--------
    G------------9
    D--------------
    A--------------
    E--------------

    flute piece
    e------------------------------------7------------
    B------------------7h9 7---------------------79
    G-----6 6h9-------------------9--------------
    D-9----------------------------------------------
    A------------------------------------------------
    E------------------------------------------------
    this piece is played twice..for the second time when u play it pluck the 9 on the D string twice..

    flute piece ending
    e-----7------------------------
    B-77--------77---797---------
    G----------------------------9
    D------------------------------
    A------------------------------
    E------------------------------

    link
    e------
    B------
    G-6---
    D-----9
    A------
    E------

    badal ne angdai li jo kabhi
    e------------------------------------------------
    B------------------------------------------------
    G-666----------------86-------------6
    D---------9------------------99---------------76
    A------------------------------------------------
    E------------------------------------------------

    lehraya dharti ka aanchal
    e-----------------------
    B-----------------------
    G-8h9 86---------------
    D--------------97--669
    A-----------------------
    E-----------------------

    ye patta patta(same-ye boota boota)
    e------------------------
    B--------7---------------
    G-99--------------996
    D------------------------
    A------------------------
    E------------------------

    cheede ye kiski ye hulchul
    e-----------------------------------
    B-----------------------------------
    G-666---------6h8 6----------6
    D---------9--------------9---------9
    A-----------------------------------
    E-----------------------------------

    manva ye dole jane kya bole-twice
    e------------------------------------------
    B-9s10 10 10--10 10--97--------------7 7h9
    G----------------------------9------------
    D------------------------------------------
    A------------------------------------------
    E------------------------------------------

    manega naa mora jiya(same-tere hai hum tere piya)
    e------------------------
    B------------------------
    G-8 8h9 8----------------
    D--------------9---7679
    A------------------------
    E------------------------
    after this continue with "ho--kahe sataye aajaa" like in the previous stanza..

    music 1-play twice
    e-------------------------------------------------------------------------------
    B------------7 7h9 7h9-7-----------7-------------7-------------7-------------7
    G-----69-------------------9------------999------------999-----------999---------999
    D-9-----------------------------------------------------------------------------
    A-------------------------------------------------------------------------------
    E-------------------------------------------------------------------------------

    music piece 2a
    e-------------------
    B-------------------
    G-9-999--------6 7h9 7666
    D----------9
    A-------------------
    E-------------------


    2b
    e-----------------------------------
    B-----------------------9--------
    G-6h9-999---------6------------7666
    D--------------9----------------
    A-----------------------------------
    E-----------------------------------
    after this again play music piece 1 twice



    palko ke sirhane baithe,khwaab wahi jo aane wale
    e------------------
    B------------------7h9 77-77 10 97
    G-999-999-99
    D-------------------
    A-------------------
    E-------------------

    dil ki girha girha khole
    e----------------7
    B- 10 10 10-------------10 997
    G----------------------------
    D----------------------------
    A----------------------------
    E----------------------------


    man mein pyaar jagane waale
    e--------------------
    B-7-797------------
    G--------------999-99
    D--------------------
    A-------------------
    E--------------------


    link
    e-7-----------7
    B------9
    G------------------------8s9 8 8h9
    D---------------
    A---------------
    E---------------
    again play the above four lines by joining with this link


    satrangi sapne(same-bol re...)
    e-77 7h9 7
    B-----------------97
    G------------------
    D------------------
    A------------------
    E------------------
    continue with kahe sataye aajaa...and so on


    TIP-try to play using all four fingers...it would help u a lot in playing n also understanding guitar..!!
     
  2. jam1

    jam1 New Member

    thank u very much buddy................!
     
  3. ejazzz0801

    ejazzz0801 New Member

    u r welcome guys...
    if u r lookin for more fun filled n challenging tunes to play then i have also posted full songs like "dilko tumse pyaar hua" ; titanic theme n entire song, "ya ali", lotsa finger excercises a couple of days back..and things which i dont even remember..
    so be sure to check em out too...rock...!!!
     
  4. ejazzz0801

    ejazzz0801 New Member

    songs which i am about to post in this month are..

    tera mera rishta purana- awarapan

    toh phir aao-awarapan

    tu kab ye janeegi-by sonu nigam

    tu hi meri shab hai-gangster

    awara pagal deewana-title track-amazin to play i tell u..!!

    woh ladki jo sabse alag hai-baadshah

    ladki kyun-hum tum...my current fav..!!

    garaj baras-paap.....monsoon bonanza

    and last but not the least...the current chartbuster SUFI-jai veeru...my tribute to love..!!

    and thousands more if i had time in my hands..
    i only wish days were any longer...so keep checkin out igt...aidos
     
  5. kishore_nittala

    kishore_nittala New Member

    buddy...
    my request is still pending :(
     
  6. ejazzz0801

    ejazzz0801 New Member

    guys this is a song which only few would have attempted to tab on their own...
    but here i have it for u completely tabbed with all the interludes...
    so its worth a try isnt it...?
    try it out n lemme know..
    this is quality work...dont let it go un-noticed..
     
  7. ejazzz0801

    ejazzz0801 New Member

    ok i thought the moonsoons were over...but its again rainin here in pune.. so the song aint outdated or out of season...be sure to check this one out..its got some amazin interludes of flute n i guess sitar which i have tabbed usin my guitar..the song is amazingly soulful...lemme know too...!
     
  8. silverotters

    silverotters New Member

    I absolutely love this song and have been wanting to learn to play this on the guitar.THANKS SO MUCH!!:D
     
  9. ejazzz0801

    ejazzz0801 New Member

    anyone tried this lately...!!....
    its very sweet
     

Share This Page