Mohiner Ghoraguli -- Manush Chena Dae

Discussion in 'Bengali Guitar Tabs - Submit or Request' started by SodaLime, Jan 24, 2005.

  1. SodaLime

    SodaLime New Member

    first the lyrics --

    verse 1:
    baarle boyesh shobai manoosh hoi ki
    shunle kotha manoosh chenaa jaae ki

    chorus 1:
    chena shohoj noi chinte laage bhoi
    boli taai manoosh chenaa daae

    verse 2:
    haath baraale bondhoo paawa jaae na
    baraale haath bondhoo shobai hoi na

    chorus 2:
    periye onek poth nilaam e shopoth
    aami noy shotroo hobo tai

    verse 3:
    haashle pore roshik shobai hoi ki
    kannaa elei kaante paara jaae ki

    chorus 3:
    haashir neeche kannaa onek holo aar na
    mon khoole heshei jaabo tai

    The verse part is over the two chords Am and E (actually E7)...

    Am---------------------------E7-------
    baarle boyesh shobai manoosh hoi ki
    Am---------------------------E7-------
    shunle kotha manoosh chenaa jaae ki

    On the chorus, play the rhythm more loudly...

    F-------------C--G------------Am-----
    chena shohoj noi chinte laage bhoi
    E7--------E7-------------Am------------------
    boli taai manoosh chenaa daae (haae re...)
    E7--------E7-------------Am----
    boli taai manoosh chenaa daae

    The intro --

    e|3-x3----|---8----|--------|--------|
    B|1-x1----|---8----|--------|--------|
    G|2-x2----|--------|--------|--------|
    D|2-x2----|--------|--------|--------|
    A|3-x3----|--------|--------|--------|
    E|--------|--------|--------|------0-|

    e|---1----|------1-|0-1-----|--------|
    B|---3----|---3----|-----3--|1--0----|
    G|---4----|--------|--------|--------|
    D|---2----|--------|--------|--------|
    A|0-x-----|--------|--------|--------|
    E|--------|--------|--------|------0-|


    e|0-x0----|--010---|--------|-4x-4---|
    B|0-x0----|-------0|--------|-3x-3---|
    G|1-x1----|--------|-----1--|-4x-4---|
    D|0-x0----|--------|--------|-2x-2---|
    A|2-x2----|--------|--------|--------|
    E|4-x4----|--------|--------|------0-|


    e|4-x4----|-------0|--------|--------|
    B|3-x3----|----0-3-|3-------|--------|
    G|4-x4----|---1----|--------|--------|
    D|2-x2----|-2------|--------|--------|
    A|--------|--------|--------|--------|
    E|--------|--------|--------|--------|

    After that, play the intro plucking figure (also repeated throughout each verse) --

    e|---0---0|---0---0|--------|---0---0|
    B|---1---1|---1---3|---0----|---1---1|
    G|---2---2|--2----1|---1----|---2---2|
    D|--2-----|2----0--|--0-----|--2--2--|
    A|0----3--|--------|2-------|0-------|
    E|--------|--------|-----4--|--------|

    Second time play this --

    e|---0---0|---0---0|000-x000|0---x---|
    B|---1---1|---1---3|000-x000|0---x---|
    G|---2---2|--2----1|111-x111|1---x---|
    D|--2-----|2----0--|000-x000|0---x---|
    A|0----3--|--------|222-x222|2---x---|
    E|--------|--------|000-x000|0---x---|

    With that, verse 1 starts.

    Over the verse parts (all verse 1,2,3) play the intro plucking figure --

    e|---0---0|---0---0|--------|---0---0|
    B|---1---1|---1---3|---0----|---1---1|
    G|---2---2|--2----1|---1----|---2---2|
    D|--2-----|2----0--|--0-----|--2--2--|
    A|0----3--|--------|2-------|0-------|
    E|--------|--------|-----4--|--------|

    For chourus parts, play the chords shown before as follows --

    e|1x1x1-x0|x0x00x0-|3x3x3-x0|x0x00x0-|
    B|1x1x1-x1|x1x11x1-|0x0x0-x1|x1x11x1-|
    G|2x2x2-x0|x0x00x0-|0x0x0-x2|x2x22x2-|
    D|3x3x3-x2|x2x22x2-|0x0x0-x2|x2x22x2-|
    A|--------|--------|--------|--------|
    E|--------|--------|--------|--------|

    Play that twice, then --

    e|0-------|0-------|---0---0|---0---0|
    B|0-------|3-------|---1---1|---1---3|
    G|1-------|1-------|---2---2|--2----1|
    D|0-------|2-------|--2-----|2----0--|
    A|2-------|2-------|0----3--|--------|
    E|0-------|0-------|--------|--------|


    e|--------|---0---0|---0---0|----0---|
    B|---0----|---1---1|---1---1|----1---|
    G|---1----|---2---2|---2---2|----2---|
    D|--0-----|--2--2--|--2-----|2-------|
    A|2-------|0-------|0----3--|--------|
    E|-----4--|--------|--------|--------|

    Now the solo...
    I won't TAB the whole thing for two reasons mainly -- It's about a minute long; and better

    if you know the scale properly.

    The whole solo is played over the A harmonic (sometimes melodic) minor scale. Here's the

    scale in practice --

    .. . . . . . . * . . .*
    e|--------|----4-5-|5-3-1-0-|--------|
    B|--------|5-6-----|--------|3-------|
    G|--4-5-7-|--------|--------|--5-4-2-|
    D|7-------|--------|--------|--------|
    A|--------|--------|--------|--------|
    E|--------|--------|--------|--------|

    Notice the two states of the 7th note marked with (*)

    I'll give you a rough sketch of the notes played in the first six measures...
    though not indicating the actual rhythm... the rhythm is like this --

    e|5-----7-|----8---|5-----7-|----8---|
    B|--------|--------|--------|--------|
    G|--------|--------|--------|--------|
    D|--------|--------|--------|--------|
    A|--------|--------|--------|--------|
    E|--------|--------|--------|--------|

    only squeezed into it's one-fourth lenghth, ie. you play these three notes in the time of

    two.

    Here's the solo --

    ..(4 measures)
    e|-8~----------8----0-------|
    B|-----6---------6----------|
    G|------5-------------------|
    D|-------7------------7-----|
    A|----------8-----------8---|
    E|------------------------0-|

    ..(4 measures)
    e|-8-------0----------0-8----8-0--|
    B|---8--------------8-------------|
    G|--------------------------------|
    D|------------)-------------------|
    A|------9-------9----------8------|
    E|--------------------------------|

    ..(4 measures)
    e|-----------------------------------------|
    B|--------3-5-6-5---3--5-3-1-0--0-1--------|
    G|----4-5----------------------------------|
    D|-----------------------------------------|
    A|--0--------------------------------------|
    E|----------------------------------0-2-2--|

    ..(4 measures)
    e|---------------------------------------|
    B|---------------------------------------|
    G|---------------------------------------|
    D|-----2-3-5-5-5-5-4-3-3-2-2--232--------|
    A|--------------------------------3--0---|
    E|---------------------------------------|

    ..(Intro Plucking Figure starts) (4 measures)
    e|-------------------------------5-7-8--))-)/@--)))-)\4----|
    B|-------------------------5-6/8---------------------------|
    G|-------------------4-5/7---------------------------------|
    D|---------------5-7---------------------------------------|
    A|---------5-7-8-------------------------------------------|
    E|---5/7-8-------------------------------------------------|

    ..(4 measures)
    e|---5---7-8-7-5--3-1--010------------------|
    B|--------------------------1-3--1----------|
    G|----------------------------------2-44~---|
    D|------------------------------------------|
    A|------------------------------------------|
    E|------------------------------------------|etc...

    Lastly, here's what's played with a second guitar in the second verse (haath baraale bondhoo paawa... ) --

    e|--------|--------|--------|--------|
    B|--------|--------|--------|)-@-#-/-|
    G|--------|--------|------79|-9-9----|
    D|--------|--------|--------|--------|
    A|--------|--------|--------|--------|
    E|--------|--------|--------|--------|

    e|--------|--------|-----8--|--------|
    B|--------|--------|--------|@)8-----|
    G|--------|--------|--------|---99-/&|
    D|--------|--------|--------|--------|
    A|--------|--------|--------|--------|
    E|--------|--------|--------|--------|

    e|--------|--------|--------|---8--8-|
    B|--------|--------|--------|----5---|
    G|--------|--------|--------|-----5--|
    D|--------|--------|--------|--------|
    A|--------|--------|--------|--------|
    E|--------|--------|--------|--------|

    e|7~~-----|--------|--------|--------|
    B|--------|--------|-----56-|--------|
    G|--------|--------|-------7|57x79---|
    D|--------|--------|--------|--------|
    A|--------|--------|--------|--------|
    E|--------|--------|--------|--------|

    Disclaimer:
    * This is the author's own work and intended for study purpose only.
    * The creator and owner of the song has NOT been contacted and taken permission of.
    * Any false or misleading information is entirely accidental and/or co-incidental.
    * The author takes NO responsiblity to defend any criticism(s) from or on behalf of the owner of the song. However, any comment(s) or criticism(s) from the forum is always welcome.

    Guys (and gals),

    If anybody wants any other song TABbed, I'll be more than happy to contribute.

    Questions? Comments? Critisism? Or are you a pretty girl?
    Just send me a mail at [SNIP]
     
  2. payel18

    payel18 New Member

    Hello SodaLime
    I am eagerly want some chords and tabs of Moheener Ghoragul. Here couple of songs- "Dishehara Amar Mon" and "E ki kotha suni Hai". If you have plz send me or any link?
     

Share This Page